Song name
# A B C D E F G H I J K L M N O P Q R S T U V W X Y Z

Distortion - Death To Mankind tab

E-5---------------------------|
B---2-------------------------|
G-----7-9-5-------------------|
D-----------3-2-0-4-----------|ROL!!
A-------------------7---------|this tab rocks this is my favorite song
E---------------------1-3-----|

E-------------------2-4---5---6-7-8-9-0h9-----|
B-----------------5-----5---7-----------------|
G------------2-1-0----------------------------|
D----------8----------------------------------|
A-------4-7-----------------------------------|
E-1-2-3---------------------------------------|
Tap to rate this tab
 
# A B C D E F G H I J K L M N O P Q R S T U V W X Y Z