Song name
# A B C D E F G H I J K L M N O P Q R S T U V W X Y Z

Distortion - Owch tab

this is a great solo!

E-18h19-13-------18p-----------12--15-------18-21b--------|
B----------16-15----17-19-20B---------13-----------12-----|
G-----------------------------8---8-------8---------------|x2
D---------------------------------------------------------|
A---------------------------------------------------------|
E---------------------------------------------------------|

E-----------15-----12-19----20-20----14-15-17---------|
B-12-12-12------17-------20-------12----------14------|
G-----------------------------------------------------|
D-----------------------------------------------------|
A-----------------------------------------------------|
E-----------------------------------------------------|
Tap to rate this tab
 
# A B C D E F G H I J K L M N O P Q R S T U V W X Y Z