Song name
# A B C D E F G H I J K L M N O P Q R S T U V W X Y Z

Disturbed - Decadence tab


\  - Slide down the fretboard (towards the bridge)

/  - Slide up the fretboard   (towards the headstock)

x  - Mute that string

.  - Palm Mute (Mute the note shown with picking hand palm, the '.' is under the note)

h  - Hammer On (ie..3h5 = pic the 3rd fret and then hammer your finger into the 5th 
picking)


Intro:

E----------------------------------]
B----------------------------------]
G----------------------------------]
D----------------------------------] x2
A--------4---2---1-------4---2---4-]
D--211111-111-111--211111-111-111--]

Verse:
E----------------------------------]
B----------------------------------]
G----------------------------------]
D---2222222--22222222-2-1----------]
A---2222222--22222222-2-1----------]
D---2222222--22222222-2-1----------]
    .......  ........ . .

E----------------------------------]
B----------------------------------]
G----------------------------------]
D---2222222--22222222-2-1----------]
A---2222222--22222222-2-1----------]
D---2222222--22222222-2-1----------]
    .......  ........ . .

E----------------------------------]
B----------------------------------]
G----------------------------------]
D---2222222--22222222-2-1----------]
A---2222222--22222222-2-1----------]
D---2222222--22222222-2-1----------]
    .......  ........ . .

E----------------------------------]
B----------------------------------]
G----------------------------------] ^The verse x2^
D---2222222---22---22-3------------]
A---2222222-4-22-2-22-1------------]
D---2222222---22---22--------------]
    .......   ..   ..


E----------------------------------------------------]
B----------------------------------------------------]
G-------4-444444------------3--4--3------------------]
D--1-1--4-444444---333333---x--x--x------------------]
A--1-1--2-222222---333333---1--2--1------------------]
D--1-1-------------333333----------------------------]

E----------------------------------------------------]
B----------------------------------------------------]
G-------4-444444-------------------------------------]
D--1-1--4-444444---3-3-3---xx--3-6-------------------]
A--1-1--2-222222---3-3-3---xx--1-4-------------------]
D--1-1-------------3-3-3---xx------------------------]

Chorus again then below

E----------------------------------------------------]
B----------------------------------------------------]
G----------4-444444-4444444--------------------------]
D--1-1--3--4-444444-4444444--------------------------]
A--1-1--3--2-222222-2222222--------------------------]
D--1-1--3--------------------------------------------]


E----------------------------------------------]
B----------------------------------------------]
G----------------------------------------------]
D----------------------------------------------] x2
A---------4---2---1-------4---2---4------------]
D---211111-111-111--211111-111-111-------------]

Verse:
E----------------------------------]
B----------------------------------]
G----------------------------------]
D---2222222--22222222-2-1----------]
A---2222222--22222222-2-1----------]
D---2222222--22222222-2-1----------]
    .......  ........ . .

E----------------------------------]
B----------------------------------]
G----------------------------------]
D---2222222--22222222-2-1----------]
A---2222222--22222222-2-1----------]
D---2222222--22222222-2-1----------]
    .......  ........ . .

E----------------------------------]
B----------------------------------]
G----------------------------------]
D---2222222--22222222-2-1----------]
A---2222222--22222222-2-1----------]
D---2222222--22222222-2-1----------]
    .......  ........ . .

E----------------------------------]
B----------------------------------]
G----------------------------------] ^verse again x2^
D---2222222---22---22-3------------]
A---2222222-4-22-2-22-1------------]
D---2222222---22---22--------------]
    .......   ..   ..

      ***Chorus again***

After Chorus
E----------------------------------]
B----------------------------------]   The first barre is 11's, not 1's.
G----------------------------------]
D---11/---1-2-1-x-1-2-1--22--------]
A---11/---1-2-1-x-1-2-1--22--------]
D---11/---1-2-1-x-1-2-1--22--------]
                         ..

E----------------------------------]
B----------------------------------]
G----------------------------------]
D---11/---1-2-1--6h76-2-2----------]
A---11/---1-2-1--6h76-2-2----------]
D---11/---1-2-1--6h76-2-2----------]

E----------------------------------]
B----------------------------------]
G----------------------------------]
D---11/---1-2-1-x-1-2-1--22--------]
A---11/---1-2-1-x-1-2-1--22--------]
D---11/---1-2-1-x-1-2-1--22--------]
                         ..

E----------------------------------]
B----------------------------------]
G----------------------------------]   This x2
D---11/---1-2-1--6h76-9-9----------]   listen to the song
A---11/---1-2-1--6h76-9-9----------]
D---11/---1-2-1--6h76-9-9----------]


    ***Chorus Again***    <----Theres some modifications in
                               this so listen out

E----------------------------------]
B----------------------------------]
G----------------------------------]
D----------------------------------] x2
A--------4---2---1-------4---2---4-]
D--211111-111-111--211111-111-111--]


E-----------------------------------------]
B-----------------------------------------]
G-----------------------------------------]
D--2-2-2-2-2-2-6-2-2-2-4-2-2-3------------]  x3 listen to
A--2-2-2-2-2-2-4-2-2-2-2-2-2-1------------]     the modification
D--2-2-2-2-2-2---2-2-2---2-2--------------]
   . . . . . .   . . .   . .

E-----------------------------------------]
B-----------------------------------------]
G-----------------------------------------]
D--2-2-2-2-2-2-6-2-2-2-4-2-2-6------------]
A--2-2-2-2-2-2-4-2-2-2-2-2-2-4------------]
D--2-2-2-2-2-2---2-2-2---2-2--------------]
   . . . . . .   . . .   . .


Thanx and please rate and comment.

Send info and thoughts to to Cloudstrife078@hotmail.co.uk
please.

Disturbed Kick A**e!!!!
Tap to rate this tab
 
# A B C D E F G H I J K L M N O P Q R S T U V W X Y Z