Song name
# A B C D E F G H I J K L M N O P Q R S T U V W X Y Z

Disturbed - Inside The Fire tab

----------------------------------------------------------------------------
			     INSIDE THE FIRE - Disterbed
----------------------------------------------------------------------------
Tabbed by:Stve2829(Tyler Alvarez)
Email:tyler1890@gmail.com

Tuning:Drop B

e|-------------------------------------------------------------------------|
B|-------------------------------------------------------------------------|
G|--8b---9-9-9-8h9\7\6/7--7h8\6--(9)---------------------------------------|
D|-------------------------------------------------------------------------|
A|-------------------------------------------------------------------------|
E|-------------------------------------------------------------------------|

e|-------------------------------------------------------------------------|
B|-------------------------------------------------------------------------|
G|--3-3-3-5-5-5-8-8-8-6-6-6-3-3-5-5-8-8-8-7-7-7-8-8-8-10-10-10-(9)---------|
D|-------------------------------------------------------------------------|
A|-------------------------------------------------------------------------|
E|-------------------------------------------------------------------------|

e|-------------------------------------------------------------------------|
B|-------------------------------------------------------------------------|
G|-------------------------------------------------------------------------|
D|-------------------------------------------------------------------------|
A|--66666666-12-66666666-10-66666666-8-6666-13-6666-12-6666-10-6666-8------|
E|-------------------------------------------------------------------------|

e|-------------------------------------------------------------------------|
B|-------------------------------------------------------------------------|
G|-------------------------------------------------------------------------|
D|-------------------------------------------------------------------------|
A|--6666-13-6666-12-6666-10-6666-8-----------------------------------------|
E|-------------------------------------------------------------------------|

e|-------------------------------------------------------------------------|
B|-------------------------------------------------------------------------|
G|-------------------------------------------------------------------------|
D|-------------------------------------------------------------------------|
A|--15-12-14-12-14---------------------------------------------------------|
E|-------------------------------------------------------------------------|

e|----------------------------------------------------------------------------|
B|----------------------------------------------------------------------------|
G|----------------------------------------------------------------------------|
D|------------------------------------------------------------------8--8-11-8-|
A|-------------7----------------7------------------7--7-10-7-10--10-----------|
E|--10-9-0-7-9--9-7-12-10-0-7-9--9-7-10-9-0-7-9--9----------------------------|

e|----------------------------------------------------------------------------|
B|----------------------------------------------------------------------------|
G|----------------------------------------------------------------------------|
D|--------------------------------------------------------------8--8----------|
A|-------------7---------------7------------------7--7-10-10-10--10--10-7-----|
E|--10-9-0-7-9--9-7-9-10-0-7-9--9-7-10-9-0-7-9--9-----------------------------|

e|----------------------------------------------------------------------------|
B|----------------------------------------------------------------------------|
G|----------------------------------------------------------------------------|
D|-------------------------------------------------------------8--8-11-8------|
A|-------------7---------------7------------------7--7-10-7-10--10------------|
E|--10-9-0-7-9--9-7-9-10-0-7-9--9-7-10-9-0-7-9--9-----------------------------|

e|------------------------------------------------------------------|
B|------------------------------------------------------------------|
G|------------------------------------------------------------------|
D|-------------7-------------------7-------------------7--7---------|
A|10-9-0-7-9--9-10-9-10-0-7-9--9-7-10-9-0-7-9--9--------------------|
E|------------------------------------------------------------------|

e|---------------------------------------11--11-15-11-15/17-17-17---|
B|------------------------10--10-13-10-13--13-----------------------|
G|---------8--8-14-8-11--11-----------------------------------------|
D|-10-5-10--10------------------------------------------------------|
A|------------------------------------------------------------------|
E|------------------------------------------------------------------|


| /  slide up
| \  slide down
| h  hammer-on
| p  pull-off
| ~  vibrato
| ()  harmonic
| b  bend
| x  Mute note
============================================================================

:: i think disturbed plays in Drop C... but my tuner is broken. So its in Drop B right 
so here it is in Drop B!

-it might not be exactly right... so message me and tell me what you think should be 
and i will fix it if i think your right-
Tap to rate this tab
 
# A B C D E F G H I J K L M N O P Q R S T U V W X Y Z