Song name
# A B C D E F G H I J K L M N O P Q R S T U V W X Y Z

Disturbed - Aravice tab

im pretty sure it's accurate, but correct me if i'm wrong!

|-----8-9-8-----8-9-8----8-9-8----8-9-8-13-13-10-10-------------------------|
|-9-10-----9-10-----9-10------9-10-----------------13-13-10-10-13b----------|
|---------------------------------------------------------------------------|
|---------------------------------------------------------------------------|
|---------------------------------------------------------------------------|
|---------------------------------------------------------------------------|

|-4b-5b---------------------------------------------------------------------|
|-6b-7b-6-5-2b---------------------------------------------16-16~~~~--------|
|-------5-4-3b-5--5-5-5-----------------------------------------------------|
|--------------7--7-7-8-5------------13------14-----13----------------------|
|-------------------------9-8---13-15---13-15--13-15--13-15-----------------|
|---------------------------------------------------------------------------|
Tap to rate this tab
# A B C D E F G H I J K L M N O P Q R S T U V W X Y Z