Song name
# A B C D E F G H I J K L M N O P Q R S T U V W X Y Z

Disturbed - Forgiven tab

Disturbed: Forgiven

Transcribed by: Andrew Zara (disturbedfreak0520@yahoo.com)

Date last modified: June 9, 2007

PLEASE DO NOT COPY THIS TAB TO ANOTHER SITE
WITHOUT AUTHORS' PERMISSION. THANK YOU.

Tuning: Drop C (C,G,C,F,A,D)


                                        PM                           
                                     E  S  S S S S S S E  S S S S S  
D||-------|-------|-------|-------|---------------------------------|
A||-------|-------|-------|-------|---------------------------------|
F||-------|-------|-------|-------|---------------------------------|
C||-------|-------|-------|-------|--4-----4-L---4-4---4----4-4---4-|
G||-------|-------|-------|-------|--2--0--2-L-0-2-2-0-2--0-2-2-0-2-|
C||-------|-------|-------|-------|---------------------------------|


    PM PM           PM    PM               PM                           
  S S  S  S S S S S S  E  S  S S S S    E  S  S S S S S S E  S S S S S  
-------------------------------------|---------------------------------|
-------------------------------------|---------------------------------|
-------------------------------------|---------------------------------|
--3-------3-L---5-5----5-----5-5-5-5-|--4-----4-L---4-4---4----4-4---4-|
--2-2--0--2-L-0-2-2-0--2--0--2-2-2-2-|--2--0--2-L-0-2-2-0-2--0-2-2-0-2-|
-------------------------------------|---------------------------------|


    PM PM           PM    PM          
  S S  S  S S S S S S  E  S  S S S S  
-------------------------------------|
-------------------------------------|
-------------------------------------|
--3-------3-L---5-5----5-----5-5-0-0-|
--2-2--0--2-L-0-2-2-0--2--0--2-2-0-0-|
-------------------------------------|


  PM PM PM   PM PM PM PM PM PM PM PM PM PM  
  E  S  S  S S  S  S  S  E  S  S  S  S  S   
-------------------------------------------|
-------------------------------------------|
-------------------------------------------|
--4-----4--L----4--4-----4-----4--4-----4--|
--2--0--2--L-0--2--2--0--2--0--2--2--0--2--|
-------------------------------------------|


  PM PM PM PM   PM PM PM PM PM PM PM PM PM PM  
  S  S  S  S  S S  S  S  S  E  S  S  S  S  S   
----------------------------------------------|
----------------------------------------------|
----------------------------------------------|
--3--------2--L----5--5-----5-----5--5--5--5--|
--2--2--0--3--L-0--2--2--0--2--0--2--2--2--2--|
----------------------------------------------|


  PM PM PM   PM PM PM PM PM PM PM PM PM PM  
  E  S  S  S S  S  S  S  E  S  S  S  S  S   
-------------------------------------------|
-------------------------------------------|
-------------------------------------------|
--4-----4--L----4--4-----4-----4--4-----4--|
--2--0--2--L-0--2--2--0--2--0--2--2--0--2--|
-------------------------------------------|


  PM PM PM PM   PM PM PM PM PM PM PM   NH  NH  NH 
  S  S  S  S  S S  S  S  S  E  S  S    S   S   S  
-------------------------------------------------|
-------------------------------------------------|
-------------------------------------------------|
--3--------2--L----5--5-----5-----5----------<>5-|
--2--2--0--3--L-0--2--2--0--2--0--2------<>5-----|
-------------------------------------<>5---------|


     PM                               PM PM           PM    PM          
  E  S  S S S S S S E  S S S S S    S S  S  S S S S S S  E  S  S S S S  
---------------------------------|-------------------------------------|
---------------------------------|-------------------------------------|
---------------------------------|-------------------------------------|
--4-----4-L---4-4---4----4-4---4-|--3-------3-L---5-5----5-----5-5-5-5-|
--2--0--2-L-0-2-2-0-2--0-2-2-0-2-|--2-2--0--2-L-0-2-2-0--2--0--2-2-2-2-|
---------------------------------|-------------------------------------|


     PM                               PM PM           PM    PM          
  E  S  S S S S S S E  S S S S S    S S  S  S S S S S S  E  S  S S S S  
---------------------------------|-------------------------------------|
---------------------------------|-------------------------------------|
---------------------------------|-------------------------------------|
--4-----4-L---4-4---4----4-4---4-|--3-------3-L---5-5----5-----5-5-0-0-|
--2--0--2-L-0-2-2-0-2--0-2-2-0-2-|--2-2--0--2-L-0-2-2-0--2--0--2-2-0-0-|
---------------------------------|-------------------------------------|


        PM PM        PM                                            
  E.  S S  S  E  S S E  Q       E  S  S S S S  S S  S S S S S S S  
-----------------------------|------------------------------------|
-----------------------------|------------------------------------|
------------------------4----|------------------------------------|
--7---7-------7--L-7----4----|--4---------------------------------|
--5---5-------5--L-2----2----|--2--0h-2-2-2-0h-2-5h-7-5---5-------|
--5---5-0--0--5--L-2-2-------|--------------------------7---7-6-7-|


        PM PM                                                        
  E.  S S  S  E  S  E.  Q       S  S S S  S S S  S S S  S S S  S E   
-----------------------------|--------------------------------------|
-----------------------------|--------------------------------------|
------------------------4----|--------------------------------------|
--7---7-------------5---4----|--------------------------------------|
--5---5-------9--L-10---2----|--0h-2-2-3p-2-2-0h-2-2-3p-2-2-0h-2-5--|
--5---5-0--0--5--L--5--------|--------------------------------------|


        PM PM        PM                                            
  E.  S S  S  E  S S E  Q       E  S  S S S S  S S  S S S S S S S  
-----------------------------|------------------------------------|
-----------------------------|------------------------------------|
------------------------4----|------------------------------------|
--7---7-------7--L------4----|--4---------------------------------|
--5---5-------5--L-2----2----|--2--0h-2-2-2-0h-2-5h-7-5---5-------|
--5---5-0--0--5--L-2-2-------|--------------------------7---7-6-7-|


  E.  S S S E  S S S S E  E     E.  S S S E  S S S S  E   E   
-----------------------------|-------------------------------|
-----------------------------|-------------------------------|
-----------------------------|-------------------------------|
--7---7-7-7-7--L-7-7-7-7--7--|--4---4-4-4-4--4-4-4-4-10--10--|
--7---7-7-7-7--L-7-7-7-7--7--|--4---4-4-4-4--4-4-4-4-10--10--|
--7---7-7-7-7--L-7-7-7-7--7--|--4---4-4-4-4--4-4-4-4-10--10--|


     PM                               PM PM           PM    PM          
  E  S  S S S S S S E  S S S S S    S S  S  S S S S S S  E  S  S S S S  
---------------------------------|-------------------------------------|
---------------------------------|-------------------------------------|
---------------------------------|-------------------------------------|
--4-----4-L---4-4---4----4-4---4-|--3-------3-L---5-5----5-----5-5-5-5-|
--2--0--2-L-0-2-2-0-2--0-2-2-0-2-|--2-2--0--2-L-0-2-2-0--2--0--2-2-2-2-|
---------------------------------|-------------------------------------|


     PM                               PM PM           PM    PM          
  E  S  S S S S S S E  S S S S S    S S  S  S S S S S S  E  S  S S S S  
---------------------------------|-------------------------------------|
---------------------------------|-------------------------------------|
---------------------------------|-------------------------------------|
--4-----4-L---4-4---4----4-4---4-|--3-------3-L---5-5----5-----5-5-0-0-|
--2--0--2-L-0-2-2-0-2--0-2-2-0-2-|--2-2--0--2-L-0-2-2-0--2--0--2-2-0-0-|
---------------------------------|-------------------------------------|


  PM PM PM   PM PM PM PM PM PM PM PM PM PM  
  E  S  S  S S  S  S  S  E  S  S  S  S  S   
-------------------------------------------|
-------------------------------------------|
-------------------------------------------|
--4-----4--L----4--4-----4-----4--4-----4--|
--2--0--2--L-0--2--2--0--2--0--2--2--0--2--|
-------------------------------------------|


  PM PM PM PM   PM PM PM PM PM PM PM PM PM PM  
  S  S  S  S  S S  S  S  S  E  S  S  S  S  S   
----------------------------------------------|
----------------------------------------------|
----------------------------------------------|
--3--------2--L----5--5-----5-----5--5--5--5--|
--2--2--0--3--L-0--2--2--0--2--0--2--2--2--2--|
----------------------------------------------|


  PM PM PM   PM PM PM PM PM PM PM PM PM PM  
  E  S  S  S S  S  S  S  E  S  S  S  S  S   
-------------------------------------------|
-------------------------------------------|
-------------------------------------------|
--4-----4--L----4--4-----4-----4--4-----4--|
--2--0--2--L-0--2--2--0--2--0--2--2--0--2--|
-------------------------------------------|


  PM PM PM PM   PM PM PM PM PM PM PM   NH  NH  NH 
  S  S  S  S  S S  S  S  S  E  S  S    S   S   S  
-------------------------------------------------|
-------------------------------------------------|
-------------------------------------------------|
--3--------2--L----5--5-----5-----5----------<>5-|
--2--2--0--3--L-0--2--2--0--2--0--2------<>5-----|
-------------------------------------<>5---------|


     PM                               PM PM           PM    PM          
  E  S  S S S S S S E  S S S S S    S S  S  S S S S S S  E  S  S S S S  
---------------------------------|-------------------------------------|
---------------------------------|-------------------------------------|
---------------------------------|-------------------------------------|
--4-----4-L---4-4---4----4-4---4-|--3-------3-L---5-5----5-----5-5-5-5-|
--2--0--2-L-0-2-2-0-2--0-2-2-0-2-|--2-2--0--2-L-0-2-2-0--2--0--2-2-2-2-|
---------------------------------|-------------------------------------|


     PM                               PM PM           PM    PM          
  E  S  S S S S S S E  S S S S S    S S  S  S S S S S S  E  S  S S S S  
---------------------------------|-------------------------------------|
---------------------------------|-------------------------------------|
---------------------------------|-------------------------------------|
--4-----4-L---4-4---4----4-4---4-|--3-------3-L---5-5----5-----5-5-0-0-|
--2--0--2-L-0-2-2-0-2--0-2-2-0-2-|--2-2--0--2-L-0-2-2-0--2--0--2-2-0-0-|
---------------------------------|-------------------------------------|


        PM PM        PM                                            
  E.  S S  S  E  S S E  Q       E  S  S S S S  S S  S S S S S S S  
-----------------------------|------------------------------------|
-----------------------------|------------------------------------|
------------------------4----|------------------------------------|
--7---7-------7--L-7----4----|--4---------------------------------|
--5---5-------5--L-2----2----|--2--0h-2-2-2-0h-2-5h-7-5---5-------|
--5---5-0--0--5--L-2-2-------|--------------------------7---7-6-7-|


        PM PM                                                        
  E.  S S  S  E  S  E.  Q       S  S S S  S S S  S S S  S S S  S E   
-----------------------------|--------------------------------------|
-----------------------------|--------------------------------------|
------------------------4----|--------------------------------------|
--7---7-------------5---4----|--------------------------------------|
--5---5-------9--L-10---2----|--0h-2-2-3p-2-2-0h-2-2-3p-2-2-0h-2-5--|
--5---5-0--0--5--L--5--------|--------------------------------------|


        PM PM        PM                                            
  E.  S S  S  E  S S E  Q       E  S  S S S S  S S  S S S S S S S  
-----------------------------|------------------------------------|
-----------------------------|------------------------------------|
------------------------4----|------------------------------------|
--7---7-------7--L------4----|--4---------------------------------|
--5---5-------5--L-2----2----|--2--0h-2-2-2-0h-2-5h-7-5---5-------|
--5---5-0--0--5--L-2-2-------|--------------------------7---7-6-7-|


  E.  S S S E  S S S S E  E     E.  S S S E  S S S S  E   E   
-----------------------------|-------------------------------|
-----------------------------|-------------------------------|
-----------------------------|-------------------------------|
--7---7-7-7-7--L-7-7-7-7--7--|--4---4-4-4-4--4-4-4-4-10--10--|
--7---7-7-7-7--L-7-7-7-7--7--|--4---4-4-4-4--4-4-4-4-10--10--|
--7---7-7-7-7--L-7-7-7-7--7--|--4---4-4-4-4--4-4-4-4-10--10--|


  >                                                                             
  W                   W                   W                   W                 
-------------------|-------------------|-------------------|-------------------|
-------------------|-------------------|-------------------|-------------------|
-------------------|-------------------|-------------------|-------------------|
--4----------------|--L----------------|--L----------------|--L----------------|
--2----------------|--L----------------|--L----------------|--L----------------|
-------------------|-------------------|-------------------|-------------------|


-------------------|-------------------|-------------------|-------------------|
-------------------|-------------------|-------------------|-------------------|
-------------------|-------------------|-------------------|-------------------|
-------------------|-------------------|-------------------|-------------------|
-------------------|-------------------|-------------------|-------------------|
-------------------|-------------------|-------------------|-------------------|


-------------------|-------------------|-------------------|-------------------|
-------------------|-------------------|-------------------|-------------------|
-------------------|-------------------|-------------------|-------------------|
-------------------|-------------------|-------------------|-------------------|
-------------------|-------------------|-------------------|-------------------|
-------------------|-------------------|-------------------|-------------------|


-------------------|-------------------|-------------------|-------------------|
-------------------|-------------------|-------------------|-------------------|
-------------------|-------------------|-------------------|-------------------|
-------------------|-------------------|-------------------|-------------------|
-------------------|-------------------|-------------------|-------------------|
-------------------|-------------------|-------------------|-------------------|


-------------------|-------------------|-------------------|
-------------------|-------------------|-------------------|
-------------------|-------------------|-------------------|
-------------------|-------------------|-------------------|
-------------------|-------------------|-------------------|
-------------------|-------------------|-------------------|


  PM PM PM PM                   PM                           
  E  E  E  E  E  E  E  E     E  S  S S S S S S E  S S S S S  
--------------------3--3--|---------------------------------|
--------------------5--5--|---------------------------------|
--------------------5--5--|---------------------------------|
--------------------5--5--|--4-----4-L---4-4---4----4-4---4-|
--2--2--2--2--2--2--3--3--|--2--0--2-L-0-2-2-0-2--0-2-2-0-2-|
--2--2--2--2--2--2--------|---------------------------------|


    PM PM           PM    PM               PM                           
  S S  S  S S S S S S  E  S  S S S S    E  S  S S S S S S E  S S S S S  
-------------------------------------|---------------------------------|
-------------------------------------|---------------------------------|
-------------------------------------|---------------------------------|
--3-------3-L---5-5----5-----5-5-5-5-|--4-----4-L---4-4---4----4-4---4-|
--2-2--0--2-L-0-2-2-0--2--0--2-2-2-2-|--2--0--2-L-0-2-2-0-2--0-2-2-0-2-|
-------------------------------------|---------------------------------|


    PM PM           PM    PM               PM                           
  S S  S  S S S S S S  E  S  S S S S    E  S  S S S S S S E  S S S S S  
-------------------------------------|---------------------------------|
-------------------------------------|---------------------------------|
-------------------------------------|---------------------------------|
--3-------3-L---5-5----5-----5-5-0-0-|--4-----4-L---4-4---4----4-4---4-|
--2-2--0--2-L-0-2-2-0--2--0--2-2-0-0-|--2--0--2-L-0-2-2-0-2--0-2-2-0-2-|
-------------------------------------|---------------------------------|


    PM PM           PM    PM               PM                           
  S S  S  S S S S S S  E  S  S S S S    E  S  S S S S S S E  S S S S S  
-------------------------------------|---------------------------------|
-------------------------------------|---------------------------------|
-------------------------------------|---------------------------------|
--3-------3-L---5-5----5-----5-5-5-5-|--4-----4-L---4-4---4----4-4---4-|
--2-2--0--2-L-0-2-2-0--2--0--2-2-2-2-|--2--0--2-L-0-2-2-0-2--0-2-2-0-2-|
-------------------------------------|---------------------------------|


    PM PM           PM    PM                  PM PM        PM       
  S S  S  S S S S S S  E  S  S S S S    E.  S S  S  E  S S E  Q     
-------------------------------------|-----------------------------|
-------------------------------------|-----------------------------|
-------------------------------------|------------------------4----|
--3-------3-L---5-5----5-----5-5-0-0-|--7---7-------7--L-7----4----|
--2-2--0--2-L-0-2-2-0--2--0--2-2-0-0-|--5---5-------5--L-2----2----|
-------------------------------------|--5---5-0--0--5--L-2-2-------|


                                             PM PM                 
  E  S  S S S S  S S  S S S S S S S    E.  S S  S  E  S  E.  Q     
------------------------------------|-----------------------------|
------------------------------------|-----------------------------|
------------------------------------|------------------------4----|
--4---------------------------------|--7---7-------------5---4----|
--2--0h-2-2-2-0h-2-5h-7-5---5-------|--5---5-------9--L-10---2----|
--------------------------7---7-6-7-|--5---5-0--0--5--L--5--------|


                                               PM PM        PM       
  S  S S S  S S S  S S S  S S S  S E     E.  S S  S  E  S S E  Q     
--------------------------------------|-----------------------------|
--------------------------------------|-----------------------------|
--------------------------------------|------------------------4----|
--------------------------------------|--7---7-------7--L------4----|
--0h-2-2-3p-2-2-0h-2-2-3p-2-2-0h-2-5--|--5---5-------5--L-2----2----|
--------------------------------------|--5---5-0--0--5--L-2-2-------|


  E  S  S S S S  S S  S S S S S S S    E.  S S S E  S S S S E  E   
------------------------------------|-----------------------------|
------------------------------------|-----------------------------|
------------------------------------|-----------------------------|
--4---------------------------------|--7---7-7-7-7--L-7-7-7-7--7--|
--2--0h-2-2-2-0h-2-5h-7-5---5-------|--7---7-7-7-7--L-7-7-7-7--7--|
--------------------------7---7-6-7-|--7---7-7-7-7--L-7-7-7-7--7--|


  E.  S S S E  S S S S E  S S    E.  S S S E  S S S S E  E   
------------------------------|-----------------------------|
------------------------------|-----------------------------|
------------------------------|-----------------------------|
--4---4-4-4-4--4-4-4-4-4--4-4-|--7---7-7-7-7--7-7-7-7-7--7--|
--4---4-4-4-4--4-4-4-4-4--4-4-|--7---7-7-7-7--7-7-7-7-7--7--|
--4---4-4-4-4--4-4-4-4-4--4-4-|--7---7-7-7-7--7-7-7-7-7--7--|


  S  S S S  S S S  S S S S S S S S S    E  S S S S S S S E  S S S S S  
-------------------------------------|--------------------------------|
-------------------------------------|--------------------------------|
-------------------------------------|--------------------------------|
--2h-4-x-2h-4-x-2h-4-4-2---2---------|--4----4-L---4-4---4----4-4---4-|
--2h-4-x-2h-4-x-2--2-----4---4-3-0-3-|--2--0-2-L-0-2-2-0-2--0-2-2-0-2-|
--2h-4-x-2h-4-x-2h-4-----------------|--------------------------------|


  E  S S S S S S S E  S S S E     E  S S S S S S S E  S S S S S  
-------------------------------|--------------------------------|
-------------------------------|--------------------------------|
-------------------------------|--------------------------------|
----------------------------5--|--4----4-L---4-4---4----4-4---4-|
--3--0-3-L---5-5-0-5--0-5-5-3--|--2--0-2-L-0-2-2-0-2--0-2-2-0-2-|
--3--0-3-L-0-5-5-0-5--0-5-5----|--------------------------------|


  E  S S S S S S S E  S S S E     E  S S S S S S S E  S S S S S  
-------------------------------|--------------------------------|
-------------------------------|--------------------------------|
-------------------------------|--------------------------------|
----------------------------5--|--4----4-L---4-4---4----4-4---4-|
--3--0-3-L---5-5-0-5--0-5-5-3--|--2--0-2-L-0-2-2-0-2--0-2-2-0-2-|
--3--0-3-L-0-5-5-0-5--0-5-5----|--------------------------------|


  E  S S S S S S S E  S S S E     E  S S S S S S S E  S S S S S  
-------------------------------|--------------------------------|
-------------------------------|--------------------------------|
-------------------------------|--------------------------------|
----------------------------5--|--4----4-L---4-4---4----4-4---4-|
--3--0-3-L---5-5-0-5--0-5-5-3--|--2--0-2-L-0-2-2-0-2--0-2-2-0-2-|
--3--0-3-L-0-5-5-0-5--0-5-5----|--------------------------------|


                                  >                  
  E  S S S S S S S E  S S S E     W                  
-------------------------------|-------------------||
-------------------------------|-------------------||
----------------------------5--|--4----------------||
----------------------------5--|--4----------------||
--3--0-3-L---5-5-0-5--0-5-5-3--|--2----------------||
--3--0-3-L-0-5-5-0-5--0-5-5----|-------------------||

 >                                                                           
  E.  S E  E  E  Q    E     W                   E  S S S S S S S E  S S E  S  
-------------------------|-------------------|-------------------------------|
------0-L--------0-------|-------------------|--------------------------7--7-|
-------------------------|-------------------|--7----7-L---7-7---7----7-7----|
-----------4--L-------4--|--L----------------|-----9-----9-----9----9--------|
-------------------------|-------------------|-------------------------------|
--5----------------------|-------------------|-------------------------------|


                                       |-3-|  
   E    S S  S S  S   S S S  S S S S   S S S  
---------------------------------------------|
--10br--L-7------10br-L-L-7------------------|
------------10-9------------10-9-7-9br-L-7---|
-------------------------------------------9-|
---------------------------------------------|
---------------------------------------------|


  E  S S S S S S S S S   S E  S S    S  S S S S S S   S  S  S  S S Q     
----------------------------------|-------------------------------------|
----------------------------------|-------------------------------------|
--7-------------------------------|--4s-7-7-7-9-9-9s-11-11-11s-9-9-7----|
-----9-7---7----------------------|-------------------------------------|
---------9---9-8-7-5-7br-L-5--3-3-|--2s-5-5-5-7-7-7s--9--9--9s-7-7-5----|
----------------------------------|-------------------------------------|


   S  S  S  S S  S  S  S  S  E   S  S   S E   
--14-10--------------------------------------|
--------12------12-10----10-12--10-15br-L-L--|
-----------11-L-------11---------------------|
---------------------------------------------|
---------------------------------------------|
---------------------------------------------|


   T  T  S  S  S  E    S   S  S   S  S  S  E   S   S  
-----------------------------------------------------|
---L-14----15-17-17b--17p-15-17p-15-----------10s-12-|
--------16--------------------------16-16~-L---------|
-----------------------------------------------------|
-----------------------------------------------------|
-----------------------------------------------------|


   S  S  S  S  S  E.  S  S  S  S  E   S  S  
--10-12-13-14-14b-L---L-14-13-12--------10-|
---------------------------------15--12----|
-------------------------------------------|
-------------------------------------------|
-------------------------------------------|
-------------------------------------------|


   T   T  T  T  T   T  T   T  T  T  T   T  T   T  T  T  T   T  T   T  T  T  T   
--12p-10----10-14p-10-12p-10----10-14p-10-12p-10----10-14p-10-12p-10----10-14p-1
---------12------------------12------------------12------------------12---------
--------------------------------------------------------------------------------
--------------------------------------------------------------------------------
--------------------------------------------------------------------------------
--------------------------------------------------------------------------------


   W                   Q.      E  H                                             
--------------------|----------------------|-----------|-----------|-----------|
--12----------------|--L\------------------|-----------|-----------|-----------|
--------------------|----------------------|-----------|-----------|-----------|
--------------------|----------------------|-----------|-----------|-----------|
--------------------|----------------------|-----------|-----------|-----------|
--------------------|----------------------|-----------|-----------|-----------|





Duration Legend
---------------
W - whole
H - half
Q - quarter
E - 8th
S - 16th
T - 32nd
X - 64th
. - note dotted
|-n-|  - n-tuplets


Tablature Legend
----------------
L - tied note
x - dead note
g - grace note
(n) - ghost note
> - accentuded note
NH - natural harmonic
AH - artificial harmonic
TH - tapped harmonic
SH - semi harmonic
PH - pitch harmonic
h - hammer on
p - pull off
b - bend
br - bendRelease
pb - preBend
pbr - preBendRelease
brb - bendReleaseBend
\n/ - tremolo bar dip
\n - tremolo bar dive
-/n - tremolo bar Release up
/n\ - tremolo bar inverted dip
/n - tremolo bar return
-\n - tremolo bar Release down
S - shift slide
s - legato slide
/ -  slide into from below or out of upwards
\ -  slide into from above or out of downwards
~ - vibrato
W - wide vibrato
tr - trill
TP - tremolo picking
T - tapping
S - slap
P - pop
< - fade in
^ - brush up
v - brush down
Tap to rate this tab
# A B C D E F G H I J K L M N O P Q R S T U V W X Y Z