Song name
# A B C D E F G H I J K L M N O P Q R S T U V W X Y Z

Disturbed - The Night tab

this is my first tab so i hope you enjoy


Legend

\&/= slide
* = palm mute
p&h = pull-off &hammer-on
T = tap
v = vibrato
b = bend
S = Sweep
a= Pinch/Artificial Harmonic (Squeal)

Some of the patterns change throughout the song but i'm too lazy to tab them, jut listen 
the song and you'll know.

Intro:

Guitar 1

|-----------------------------------------8------|
|-----------------------------------5-6-8--------|
|---------------------------------7--------------|
|-------------8/7-----------8/7------------------|
|---0-6/5-------------6/5------------------------|
|---0------0-------0-----------------------------|

|--------------------------------------------------------|
|--------------------------------------------------------|
|--------------------------------------------------------|
|---8---------8---------8-----7---------7---------7------|
|---6-0-0-0-0-6-0-0-0-0-6-0-0-6-0-0-0-0-6-0-0-0-0-6-0-0--|
|-----0-0-0-0---0-0-0-0---0-0---0-0-0-0---0-0-0-0---0-0--|
      * * * *   * * * *   * *   * * * *   * * * *   * *

|------------------------------------------------|
|-----------------------------------5-6-8-9v-----|
|---------------------------------7--------------|
|---0---------8/7-----------8/7------------------|
|---0-6/5-------------6/5------------------------|
|---0------0-------0-----------------------------|

|--------------------------------------------------------|
|--------------------------------------------------------|
|--------------------------------------------------------|
|---8---------8---------8-----7---------7---------7------|
|---6-0-0-0-0-6-0-0-0-0-6-0-0-6-0-0-0-0-6-0-0-0-0-6-0-0--|
|-----0-0-0-0---0-0-0-0---0-0---0-0-0-0---0-0-0-0---0-0--|
      * * * *   * * * *   * *   * * * *   * * * *   * *

Guitar 2:


|------------------------------------------------|
|------------------------------------------------|
|------------------------------------------------|
|---0--------------------------------------------|
|---0--------------------------------------------|
|---0--------------------------------------------|

|--------------------------------------------------------|
|--------------------------------------------------------|
|--------------------------------------------------------|
|--------------------------------------------------------|
|-----0-0-0-0---0-0-0-0---0-0---0-0-0-0---0-0-0-0---0-0--|
|-----0-0-0-0---0-0-0-0---0-0---0-0-0-0---0-0-0-0---0-0--|
      * * * *   * * * *   * *   * * * *   * * * *   * *

|--------------------------------------------------|
|--------------------------------------------------|
|--------------------------------------------------|
|---0-------0-------0------------------------------|
|---0-------0-------0------------------------------|
|---0-------0-------0------------------------------|

|--------------------------------------------------------|
|--------------------------------------------------------|
|--------------------------------------------------------|
|--------------------------------------------------------|
|-----0-0-0-0---0-0-0-0---0-0---0-0-0-0---0-0-0-0---0-0--|
|-----0-0-0-0---0-0-0-0---0-0---0-0-0-0---0-0-0-0---0-0--|
      * * * *   * * * *   * *   * * * *   * * * *   * *

Verse Part 1:

Both Guitars play Guitar 1

Verse Part 2:

|---------------------------------|
|---------------------------------|
|---------------------------------|
|-0-00-000-0-000-0-000-0-111-3333-|
|-0-00-000-0-000-0-000-0-111-3333-|
    ** *** * *** * *** * *** ****
|---------------------------------|
|---------------------------------|
|---------------------------------|
|-0-00-000-0-000-0-000-0-333-1111-|
|-0-00-000-0-000-0-000-0-333-1111-|
  * ** *** * *** * *** * *** ****

|---------------------------------|
|---------------------------------|
|---------------------------------|
|-0-00-000-0-000-0-000-0-111-3333-|
|-0-00-000-0-000-0-000-0-111-3333-|
    ** *** * *** * *** * *** ****
|---------------------------------|
|---------------------------------|
|---------------------------------|
|-0-00-000-0-000-0-000-0-333-1111-|
|-0-00-000-0-000-0-000-0-333-1111-|
  * ** *** * *** * *** * *** ****

Pre-Chorus:

|------------------------------------------|
|------------------------------------------|
|------------------------------------------|
|-6665-55-6665-55-5-55-5-6565-555-666555888|
|-6665-55-6665-55-5-55-5-6565-555-666555888|
       **      **   **        ***
|------------------------------------------|
|------------------------------------------|
|------------------------------------------|
|-6665-55-6665-55-5-55-5-6565-555-6--5--3--|
|-6665-55-6665-55-5-55-5-6565-555-6--5--3--|
       **      **   **        ***

Chorus:
|------------------------------------------------------|
|------------------------------------------------------|
|-----------------3333-3333-1--------------------------|
|-5555-5555-5-333-1111-1111-1-333----------------------|
|-5555-5555-5-333-1111-1111-1-111-8888-8888-8-8810-----|
|-5555-5555-5-333-1111-1111-1-111-8888-8888-8-8810-----|

|-----------------------|
|-----------------------|
|-2---------2---------5-|
|-0---------0---------3-|
|-0-0-0-0-0-0-0-0-0-0-3-|
|-0-0-0-0-0-0-0-0-0-0-3-|
    * * * *   * * * *
|------------------------------------------------------|
|------------------------------------------------------|
|-----------------3333-3333-1--------------------------|
|-5555-5555-5-333-1111-1111-1-333----------------------|
|-5555-5555-5-333-1111-1111-1-111-8888-8888-8-8810-----|
|-5555-5555-5-333-1111-1111-1-111-8888-8888-8-8810-----|

|-------------------------|
|-------------------------|
|-------------------------|
|-10-10-10-10-10-10-10-10-|
|-10-10-10-10-10-10-10-10-|
   *  *  *  *  *

play Intro again

Then Play Verse Part 1 again

Verse Part 2 Slight variation:

|---------------------------------|
|---------------------------------|
|---------------------------------|
|-0-00-000-0-000-0-000-0-111-3333-|
|-0-00-000-0-000-0-000-0-111-3333-|
    ** *** * *** * *** * *** ****
|---------------------------------|
|---------------------------------|
|---------------------------------|
|-0-00-000-0-000-0-000-0-333-1111-|
|-0-00-000-0-000-0-000-0-333-1111-|
  * ** *** * *** * *** * *** ****

|---------------------------------|
|---------------------------------|
|---------------------------------|
|-0-00-000-0-000-0-000-0-111-3333-|
|-0-00-000-0-000-0-000-0-111-3333-|
    ** *** * *** * *** * *** ****
|------------------------------------|
|------------------------------------|
|-7-----8----7----5----7-------------|
|-5-----6----5----3----5-00000-003311|
|---000---00---00---00---00000-003311|
    ***   **   **   **   ***** ******

Play Prechorus Again

Play Chorus Again

Solo:

Guitar 2: Plays this behind solo

|---------------------------------|
|---------------------------------|
|---------------------------------|
|-0-00-000-0-000-0-000-0-000-0000-|
|-0-00-000-0-000-0-000-0-000-0000-|
    ** *** * *** * *** * *** ****

|--------------------------------------------------------|
|--------------------------------------------------------|
|--------------------------------------------------------|
|---8---------8---------8-----7---------7---------7------|
|---6-0-0-0-0-6-0-0-0-0-6-0-0-6-0-0-0-0-6-0-0-0-0-6-0-0--|
|-----0-0-0-0---0-0-0-0---0-0---0-0-0-0---0-0-0-0---0-0--|
      * * * *   * * * *   * *   * * * *   * * * *   * *

Guitar 1:

|----------------------------------------------------------------------------|
|----------------------------------------------------------------------------|
|----------------------------------------------------------------------------|
|-/1312-10-12-8-10-/1312-1012-810-/1312-10-12-8-10-7-8-7-5-------------------|
|----------------------------------------------------------------------------|
|----------------------------------------------------------------------------|

|----------------------------------------------------------------------------------------|
|----------------------------------------------------------------------------------------|
|-------15----14b&a------15----14b&a---------------15----14b&a-------------10-11-10------|
|-/1312----12-------1312----12-------13121012-1312----12-------1312--12-13----------13-12|
|----------------------------------------------------------------------------------------|
|----------------------------------------------------------------------------------------|

|------------------------------------------------------------------------|
|----------------------------------------------------------141514--------|
|-------------------------------------------14151412----12--------151415-|
|-10-12----10-12----10-12----10-12-/15-1312----------13------------------|
|-------12-------12-------12---------------------------------------------|
|------------------------------------------------------------------------|

------------------------------15b-13-15v--|
1415-171817151415171817151415-------------|
------------------------------------------|
------------------------------------------|
------------------------------------------|
------------------------------------------|


|-----15p13----17p13-15p13----17p13-15p13----17p13-15p13----17p13-15p13----17p13-15p13-|
|--15-------15-------------15-------------15-------------15-------------15-------------|
|--------------------------------------------------------------------------------------|
|--------------------------------------------------------------------------------------|
|--------------------------------------------------------------------------------------|
|--------------------------------------------------------------------------------------|

|--------------------------------------------------------------|
|-151515151515-171717171717-181818181818-202020202020-1818-1717|
|--------------------------------------------------------------|
|--------------------------------------------------------------|
|--------------------------------------------------------------|
|--------------------------------------------------------------|

|-20b-20-20-20-20-20-20-20-20-20p17-----17-----17----17----17------------|
|-----------------------------------20b----20b----20b---20b---20b--18v---|
|------------------------------------------------------------------------|
|------------------------------------------------------------------------|
|------------------------------------------------------------------------|
|------------------------------------------------------------------------|

Sweeping Part:                       Tapping Part:
|-----1720p17-------------------------131722-131722-131722-1317221713-----|
|---18-------18---------182018----------------------------------------15--|
|-17-----------17-----17------17------------------------------------------|
|----------------1917-----------17----------------------------------------|
|---------------------------------17--------------------------------------|
|-------------------------------------------------------------------------|

|----------------------13-------18b-17-16-15-13-15-15b13----13-15-13v------------|
|------------------13b----13b----------------------------15----------------------|
|-----10-12-12b-10---------------------------------------------------------------|
|--12----------------------------------------------------------------------------|
|--------------------------------------------------------------------------------|
|--------------------------------------------------------------------------------|

|-----------------------|
|-----------------------|
|-----------------------|
|--0-3-5-5a3---3--------|
|------------5---5-3-0--|
|-----------------------|

Last Note of Solo: Played over chorus

|-----------------------|
|-----------------------|
|-----------------------|
|-----------------------|
|--5v-------------------|
|-----------------------|

Play Chorus X2 with slight variation in the ending of first chorus, same notes but 
pattern. Easy to work out though.

Outro:

|-----------------------------------------8------|
|-----------------------------------5-6-8--------|
|---------------------------------7--------------|
|---0---------8/7-----------8/7------------------|
|---0-6/5-------------6/5------------------------|
|---0------0-------0-----------------------------|

|------------------------------------------------|
|-----------------------------------5-6-8--------|
|---------------------------------7-------9------|
|---0---------8/7-----------8/7------------------|
|---0-6/5-------------6/5------------------------|
|---0------0-------0-----------------------------|

|-----------------------------------------8------|
|-----------------------------------5-6-8--------|
|---------------------------------7--------------|
|---0---------8\7-----------8/7------------------|
|---0-6/5-------------6/5------------------------|
|---0------0-------0-----------------------------|

|------------------------------------------------|
|-----------------------------------5-6-8--------|
|---------------------------------7-------9\-----|
|---0---------8/7-----------8/7------------------|
|---0-6/5-------------6/5------------------------|
|---0------0-------0-----------------------------|
Tap to rate this tab
# A B C D E F G H I J K L M N O P Q R S T U V W X Y Z