Song name
# A B C D E F G H I J K L M N O P Q R S T U V W X Y Z

Disturbed - The Night tab

e|---------------------------------------------------------------------------|
B|---------------------------------------------------------------------------|
G|---------------------------------------------------------------------------|
D|/13-12-0-10-12-0-8-10-/13-12-0-10-12-0-8-10-/13-12-0-10-12-0-8-10-0-7-8-7--|
A|---------------------------------------------------------------------------|
E|---------------------------------------------------------------------------|

e|---------------------------------------------------------------------------|
B|---------------------------------------------------------------------------|
G|--------15---14A-----15--14A------------------15--14A-----------10-11-10---|
D|5-/13-12--12---/13-12--12---/13-12-10-12-13-12--12---13-12-12-13--------13-|
A|---------------------------------------------------------------------------|
E|---------------------------------------------------------------------------|

e|------------------------------------------------------------------------12-|
B|---------------------------------------------------14-15-14--------14-15---|
G|-----------------10-12--------------14-15-14-12--12--------15-14-15--------|
D|12-10-12--10-12--10-12---10-12-12/15-----------13--------------------------|
A|--------12-----12------12--------------------------------------------------|
E|---------------------------------------------------------------------------|
                                               p      p     p      p     p
e|13-12--------12-13-12--------15b-13-15b----15-13--17-13-15-13--17-13-15-13-|
B|-----15-14-15--------15-14-15------------15-----15-----------15------------|
G|---------------------------------------------------------------------------|
D|---------------------------------------------------------------------------|
A|---------------------------------------------------------------------------|
E|---------------------------------------------------------------------------|
      p     p      p     p
e|--17-13-15-13--17-13-15-13-------------------------------------------------|
B|15-----------15-----------15-15-15-15-15-15-17-17-17-17-17-17-18-18-18-18--|
G|---------------------------------------------------------------------------|
D|---------------------------------------------------------------------------|
A|---------------------------------------------------------------------------|
E|---------------------------------------------------------------------------|

e|-----------------------------------20b-20-20-20-20-20-20-20-20-17---17-----|
B|18-18-20-20-20-20-20-20-18-18-17-17------------------------------20b--20b--|
G|---------------------------------------------------------------------------|
D|---------------------------------------------------------------------------|
A|---------------------------------------------------------------------------|
E|---------------------------------------------------------------------------|
                                    h  p          h  p       t   h   t   
e|17---17---17---17---------------13-17-13------13-17-13----22-13-17-22------|
B|--20b--20b--20b--20b-18v------15--------15--15--------15-------------------|
G|----------------------------14------------14------------14-----------------|
D|--------------------------15-----------------------------------------------|
A|------------------------17-------------------------------------------------|
E|---------------------------------------------------------------------------|
    h    t   h 
e|13-17-22-13-17-------------------------------------------------------------|
B|--------------15-----------------------------------------------------------|
G|---------------------------------------------------------------------------|
D|---------------------------------------------------------------------------|
A|---------------------------------------------------------------------------|
E|---------------------------------------------------------------------------|

| h  hammer on
| A  Arificial Harmonic
| b  Bend
| /  slide up
| \  slide down
| h  hammer-on
| p  pull-off
| v  vibrato
| H  harmonic
| x  Mute note
===============================================================================
Tap to rate this tab
# A B C D E F G H I J K L M N O P Q R S T U V W X Y Z