Song name
# A B C D E F G H I J K L M N O P Q R S T U V W X Y Z

Disturbed - Stricken Live tab

--------------------------------------------------------------------------------|
--------------------------------------------------------------------------------|
--------------------------------------------------------------------------------|
------10\7--------------------------------------10\7----------------------------|
-------8\5----8\7-----1/3-----3/5-----3/6--------8\5-----8\7-----1/3-----3/5----|
--O--------0--8\7--0--1/3--0--3/5--0--3/6--O---------0---8\7--0--1/3--0--3/5----|


----------------------------------------------------------------------------------------|
----------------------------------------------------------------------------------------|
-----------------------------------------------------------------------9 9 9101010 9----|
---------------10\7----------------------------------3---3 3 3 5 5 5 7 7 7 7 7 7 7 7----|
-----3 3--------8\5-----8\7-----1/3-----3/5-----3/6--3---3 3 3 3 3 3 3 7 7 7 7 7 7 7----|
--0--3 3--O----------0--8\7--0--1/3--0--3/5--0--3/6--3---3 3 3 3 3 3 3 7 7 7 7 7 7 7 0--|

The zeros on the tab are palm mutes and the capital O's are open notes
Tap to rate this tab
# A B C D E F G H I J K L M N O P Q R S T U V W X Y Z