Song name
# A B C D E F G H I J K L M N O P Q R S T U V W X Y Z

Disturbed - Haunted tab

-------------------------------------------------------------------------------
			     "Haunted" --- Disturbed
-------------------------------------------------------------------------------


Tabbed by: [travis]


Tuning: Drop C (C G C F A D)


Key: D Major (D E F# G A B C#)


Legend:

... = palm mute
h = hammer on
p = pull off
b = bend
__ = hold bend
x = muffled string (muted with fret hand, lightly)
* = pinch harmonic
! = tremelo pick
/ = slide up
\ = slide down
h/ = pick first note only
p\ = pick first note only
() = bent note back to normal / note not picked
.5 = half step bend
1 = whole step bend
1.5 = step and half bend
2 = two step bend
T = tap
~ = vibrato / ring
+ = filter effect using wah pedal



========================
Intro:

Guitar 1:
D|---------------------------------------------------------------------------------------|
A|---------------------------------------------------------------------------------------|
F|-----0~~~~----0~~~~---0-----0-----------0~~~----0~~~~---0-----0-----------0~~~----0~~~-|
C|---4-------4--------4---4------4-----4-------4--------4---4------4-----4-------4-------|
G|-2------------------------0-------2-------------------------0-------2------------------|
C|---------------------------------------------------------------------------------------|

Guitar 1:
D|--------------|
A|--------------|
F|---0-----0----|
C|-4---4------4-|
G|-------0------|
C|--------------|

========================
Guitar 2:
D|----7~~~~~--------8~~~~--------7~~~~-------8~~~~-10----7~~~~-------8~~~~------------7~~~~---|
A|-----------7~~~~~-------10-----------7~~~~-------------------7~~~~--------10----------------|
F|------------------------------------------------------------------------------7--5--------5-|
C|-9--------------------------9------------------------9--------------------------------------| x2
G|--------------------------------------------------------------------------------------------|
C|--------------------------------------------------------------------------------------------|

========================
Guitar 1:
                                    +++++++    +++++++++++++++
D|-------------------------------------------------------------|
A|-------------------------------------------------------------|
F|-------------------------------------------------------------|
C|-9-9-9-9----9-9-9-9----9-9-9-9----9-9-9-9----5-5-5-5-7-7-7-7-|
G|-9-9-9-9----9-9-9-9----9-9-9-9----9-9-9-9----5-5-5-5-7-7-7-7-|
C|-9-9-9-9----9-9-9-9----9-9-9-9----9-9-9-9----5-5-5-5-7-7-7-7-|

=========================
Guitars 1 and 2:
D|-------------------------------------------------------------|
A|-------------------------------------------------------------|
F|-------------------------------------------------------------|
C|-9-9-9-9----9-9-9-9----9-9-9-9----9-9-9-9----5-5-5-5-7-7-7-7-|
G|-9-9-9-9----9-9-9-9----9-9-9-9----9-9-9-9----5-5-5-5-7-7-7-7-|
C|-9-9-9-9----9-9-9-9----9-9-9-9----9-9-9-9----5-5-5-5-7-7-7-7-|

Guitars 1 and 2:
D|-------------------------------------------------------------|
A|-------------------------------------------------------------|
F|-------------------------------------------------------------|
C|-9-9-9-9----9-9-9-9----9-9-9-9----9-9-9-9----5-5-5-5-4-4-4-4-|
G|-9-9-9-9----9-9-9-9----9-9-9-9----9-9-9-9----5-5-5-5-4-4-4-4-|
C|-9-9-9-9----9-9-9-9----9-9-9-9----9-9-9-9----5-5-5-5-4-4-4-4-|

Guitars 1 and 2:
D|-------------------------------------------------------------|
A|-------------------------------------------------------------|
F|-------------------------------------------------------------|
C|-9-9-9-9----9-9-9-9----9-9-9-9----9-9-9-9----5-5-5-5-7-7-7-7-|
G|-9-9-9-9----9-9-9-9----9-9-9-9----9-9-9-9----5-5-5-5-7-7-7-7-|
C|-9-9-9-9----9-9-9-9----9-9-9-9----9-9-9-9----5-5-5-5-7-7-7-7-|

Guitars 1 and 2:
D|-----------------------------------------------------------------------------|
A|-----------------------------------------------------------------------------|
F|-7-7-7-7-7-7-7-7-7-7-7-7-9-9-9-9---------------------------------------------|
C|-7-7-7-7-7-7-7-7-7-7-7-7-9-9-9-9-10-10-10-10-10-10-10-10-10-10-10-10-7-7-7-7-|
G|-5-5-5-5-5-5-5-5-5-5-5-5-7-7-7-7-10-10-10-10-10-10-10-10-10-10-10-10-7-7-7-7-|
C|---------------------------------10-10-10-10-10-10-10-10-10-10-10-10-7-7-7-7-|

End of Intro.
===========================
Verse 1:

Guitars 1 and 2:
D|-------------------------------------------------------------|
A|-------------------------------------------------------------|
F|-------------------------------------------------------------|
C|-9-9-9-9----9-9-9-9----9-9-9-9----9-9-9-9----5-5-5-5-7-7-7-7-|
G|-9-9-9-9----9-9-9-9----9-9-9-9----9-9-9-9----5-5-5-5-7-7-7-7-|
C|-9-9-9-9----9-9-9-9----9-9-9-9----9-9-9-9----5-5-5-5-7-7-7-7-|

Guitars 1 and 2:
D|-------------------------------------------------------------|
A|-------------------------------------------------------------|
F|-------------------------------------------------------------|
C|-9-9-9-9----9-9-9-9----9-9-9-9----9-9-9-9----5-5-5-5-4-4-4-4-|
G|-9-9-9-9----9-9-9-9----9-9-9-9----9-9-9-9----5-5-5-5-4-4-4-4-|
C|-9-9-9-9----9-9-9-9----9-9-9-9----9-9-9-9----5-5-5-5-4-4-4-4-|

Guitars 1 and 2:
D|-------------------------------------------------------------|
A|-------------------------------------------------------------|
F|-------------------------------------------------------------|
C|-9-9-9-9----9-9-9-9----9-9-9-9----9-9-9-9----5-5-5-5-7-7-7-7-|
G|-9-9-9-9----9-9-9-9----9-9-9-9----9-9-9-9----5-5-5-5-7-7-7-7-|
C|-9-9-9-9----9-9-9-9----9-9-9-9----9-9-9-9----5-5-5-5-7-7-7-7-|

===============================
Guitars 1 and 2:
D|-----------------------------------------------------------------------------|
A|-----------------------------------------------------------------------------|
F|-7-7-7-7-7-7-7-7-7-7-7-7-9-9-9-9---------------------------------------------|
C|-7-7-7-7-7-7-7-7-7-7-7-7-9-9-9-9-10-10-10-10-10-10-10-10-10-10-10-10-7-7-7-7-|
G|-5-5-5-5-5-5-5-5-5-5-5-5-7-7-7-7-10-10-10-10-10-10-10-10-10-10-10-10-7-7-7-7-|
C|---------------------------------10-10-10-10-10-10-10-10-10-10-10-10-7-7-7-7-|

Guitar 3:
D|-----------------------------------------------------------------|
A|-----------------------------------------------------------------|
F|-7-7-7-7-7-7-7-7-7-7-7-7-9-9-9-9-5-5-5-5-5-5-5-5-5-5-5-5---------|
C|-x-x-x-x-x-x-x-x-x-x-x-x-x-x-x-x-x-x-x-x-x-x-x-x-x-x-x-x-7-7-7-7-|
G|-5-5-5-5-5-5-5-5-5-5-5-5-7-7-7-7-3-3-3-3-3-3-3-3-3-3-3-3---------|
C|-----------------------------------------------------------------|

Guitar 4:
D|---------------------------------------------------------------------------------|
A|---------------------------------------------------------------------------------|
F|-11-11-11-11-11-11-11-11-11-11-11-11-12-12-12-12-9-9-9-9-9-9-9-9-9-9-9-9---------|
C|--x--x--x--x--x--x--x--x--x--x--x--x--x--x--x--x-x-x-x-x-x-x-x-x-x-x-x-x-7-7-7-7-|
G|--9--9--9--9--9--9--9--9--9--9--9--9-10-10-10-10-7-7-7-7-7-7-7-7-7-7-7-7---------|
C|---------------------------------------------------------------------------------|


Guitars 1 and 2:
D|-------------------------------------------------------------|
A|-------------------------------------------------------------|
F|-------------------------------------------------------------|
C|-9-9-9-9----9-9-9-9----9-9-9-9----9-9-9-9----5-5-5-5-7-7-7-7-|
G|-9-9-9-9----9-9-9-9----9-9-9-9----9-9-9-9----5-5-5-5-7-7-7-7-|
C|-9-9-9-9----9-9-9-9----9-9-9-9----9-9-9-9----5-5-5-5-7-7-7-7-|

Guitars 1 and 2:
D|-------------------------------------------------------------|
A|-------------------------------------------------------------|
F|-------------------------------------------------------------|
C|-9-9-9-9----9-9-9-9----9-9-9-9----9-9-9-9----5-5-5-5-4-4-4-4-|
G|-9-9-9-9----9-9-9-9----9-9-9-9----9-9-9-9----5-5-5-5-4-4-4-4-|
C|-9-9-9-9----9-9-9-9----9-9-9-9----9-9-9-9----5-5-5-5-4-4-4-4-|

Guitars 1 and 2:
D|-------------------------------------------------------------|
A|-------------------------------------------------------------|
F|-------------------------------------------------------------|
C|-9-9-9-9----9-9-9-9----9-9-9-9----9-9-9-9----5-5-5-5-7-7-7-7-|
G|-9-9-9-9----9-9-9-9----9-9-9-9----9-9-9-9----5-5-5-5-7-7-7-7-|
C|-9-9-9-9----9-9-9-9----9-9-9-9----9-9-9-9----5-5-5-5-7-7-7-7-|

===============================
Guitars 1 and 2:
D|-----------------------------------------------------------------------------|
A|-----------------------------------------------------------------------------|
F|-7-7-7-7-7-7-7-7-7-7-7-7-9-9-9-9---------------------------------------------|
C|-7-7-7-7-7-7-7-7-7-7-7-7-9-9-9-9-10-10-10-10-10-10-10-10-10-10-10-10-7-7-7-7-|
G|-5-5-5-5-5-5-5-5-5-5-5-5-7-7-7-7-10-10-10-10-10-10-10-10-10-10-10-10-7-7-7-7-|
C|---------------------------------10-10-10-10-10-10-10-10-10-10-10-10-7-7-7-7-|

Guitar 3:
D|-----------------------------------------------------------------|
A|-----------------------------------------------------------------|
F|-7-7-7-7-7-7-7-7-7-7-7-7-9-9-9-9-5-5-5-5-5-5-5-5-5-5-5-5---------|
C|-x-x-x-x-x-x-x-x-x-x-x-x-x-x-x-x-x-x-x-x-x-x-x-x-x-x-x-x-7-7-7-7-|
G|-5-5-5-5-5-5-5-5-5-5-5-5-7-7-7-7-3-3-3-3-3-3-3-3-3-3-3-3---------|
C|-----------------------------------------------------------------|

Guitar 4:
D|---------------------------------------------------------------------------------|
A|---------------------------------------------------------------------------------|
F|-11-11-11-11-11-11-11-11-11-11-11-11-12-12-12-12-9-9-9-9-9-9-9-9-9-9-9-9---------|
C|--x--x--x--x--x--x--x--x--x--x--x--x--x--x--x--x-x-x-x-x-x-x-x-x-x-x-x-x-7-7-7-7-|
G|--9--9--9--9--9--9--9--9--9--9--9--9-10-10-10-10-7-7-7-7-7-7-7-7-7-7-7-7---------|
C|---------------------------------------------------------------------------------|

End of Verse 1.
==================================
Chorus 1:

Guitar 1:
D|-----------------------------------------------------------------------------------------------|
A|-----------------------------------------------------------------------------------------------|
F|-----------------------------------------------------------------------------------------------|
C|-9~~-9--9~~~--4~~-4~~~--5--5-5--9~~~--9~~~--7~~~~--7~~~--12--11-12--9~~~-9~~--4~~-4~~~--5--5-5-|
G|-9~~-9--9~~~--4~~-4~~~--5--5-5--9~~~--9~~~--7~~~~--7~~~--12---x-12--9~~~-9~~--4~~-4~~~--5--5-5-|
C|-9~~-9--9~~~--4~~-4~~~--5--5-5--9~~~--9~~~--7~~~~--7~~~--12--11-12--9~~~-9~~--4~~-4~~~--5--5-5-|

Guitar 2:
D|-------7-5---------5-7-----------------7-5---------5-7-----------------7-5---------5-7-----------|
A|-------------------------------------------------------------------------------------------------|
F|-----7-----7--6--7-----7--7--6-7-----7-----7-----7-----7--7--6-7-----7-----7--6--7-----7--7--6-7-|
C|-7h9-----------------------------7h9----------7------------------7h9-----------------------------|
G|-------------------------------------------------------------------------------------------------|
C|-------------------------------------------------------------------------------------------------|

===================================
Guitar 1:
D|---------------------------------------|
A|---------------------------------------|
F|--------------------------------7--6-7-|
C|-12~~~--12~~-----14~~~--14------x--x-x-|
G|-12~~~--12~~--x--14~~~--14---x--5--4-5-|
C|-12~~~--12~~--x--14~~~--14---x---------|

Guitar 2:
D|-----------------------------------------7~~~~-|
A|----10---10-10-----10-----10-------------------|
F|-9-----7----------------------7--6-7-----------|
C|----------------9------9--------------9--------|
G|-----------------------------------------------|
C|-----------------------------------------------|

End of Chorus 1.
====================================
Pre Verse 1:

Guitar 1:
D|---------------------|
A|---------------------|
F|---------------------|
C|-9~~~~~~~~~~~~~~~~~~-|
G|-9~~~~~~~~~~~~~~~~~~-|
C|-9~~~~~~~~~~~~~~~~~~-|

Guitar 2:
D|----7~~~------8~~~-----------7~~~~---------8~~~~~-10-------7~~~~~--------7~~~~---|
A|---------7~~~------10--------------7~~~~-----------------------------------------|
F|------------------------------------------------------7~~~--------7--5~~-------5-|
C|-9---------------------9~~~~-----------------------------------------------------|
G|---------------------------------------------------------------------------------|
C|---------------------------------------------------------------------------------|

=====================================
Guitar 1:
                                    +++++++    +++++++++++++++
D|-------------------------------------------------------------|
A|-------------------------------------------------------------|
F|-------------------------------------------------------------|
C|-9-9-9-9----9-9-9-9----9-9-9-9----9-9-9-9----5-5-5-5-7-7-7-7-|
G|-9-9-9-9----9-9-9-9----9-9-9-9----9-9-9-9----5-5-5-5-7-7-7-7-|
C|-9-9-9-9----9-9-9-9----9-9-9-9----9-9-9-9----5-5-5-5-7-7-7-7-|

End of Pre Verse 1.
=====================================
Verse 2:

Guitars 1 and 2:
D|-------------------------------------------------------------|
A|-------------------------------------------------------------|
F|-------------------------------------------------------------|
C|-9-9-9-9----9-9-9-9----9-9-9-9----9-9-9-9----5-5-5-5-7-7-7-7-|
G|-9-9-9-9----9-9-9-9----9-9-9-9----9-9-9-9----5-5-5-5-7-7-7-7-|
C|-9-9-9-9----9-9-9-9----9-9-9-9----9-9-9-9----5-5-5-5-7-7-7-7-|

Guitars 1 and 2:
D|-------------------------------------------------------------|
A|-------------------------------------------------------------|
F|-------------------------------------------------------------|
C|-9-9-9-9----9-9-9-9----9-9-9-9----9-9-9-9----5-5-5-5-4-4-4-4-|
G|-9-9-9-9----9-9-9-9----9-9-9-9----9-9-9-9----5-5-5-5-4-4-4-4-|
C|-9-9-9-9----9-9-9-9----9-9-9-9----9-9-9-9----5-5-5-5-4-4-4-4-|

Guitars 1 and 2:
D|-------------------------------------------------------------|
A|-------------------------------------------------------------|
F|-------------------------------------------------------------|
C|-9-9-9-9----9-9-9-9----9-9-9-9----9-9-9-9----5-5-5-5-7-7-7-7-|
G|-9-9-9-9----9-9-9-9----9-9-9-9----9-9-9-9----5-5-5-5-7-7-7-7-|
C|-9-9-9-9----9-9-9-9----9-9-9-9----9-9-9-9----5-5-5-5-7-7-7-7-|

===============================
Guitars 1 and 2:
D|-----------------------------------------------------------------------------|
A|-----------------------------------------------------------------------------|
F|-7-7-7-7-7-7-7-7-7-7-7-7-9-9-9-9---------------------------------------------|
C|-7-7-7-7-7-7-7-7-7-7-7-7-9-9-9-9-10-10-10-10-10-10-10-10-10-10-10-10-7-7-7-7-|
G|-5-5-5-5-5-5-5-5-5-5-5-5-7-7-7-7-10-10-10-10-10-10-10-10-10-10-10-10-7-7-7-7-|
C|---------------------------------10-10-10-10-10-10-10-10-10-10-10-10-7-7-7-7-|

Guitar 3:
D|-----------------------------------------------------------------|
A|-----------------------------------------------------------------|
F|-7-7-7-7-7-7-7-7-7-7-7-7-9-9-9-9-5-5-5-5-5-5-5-5-5-5-5-5---------|
C|-x-x-x-x-x-x-x-x-x-x-x-x-x-x-x-x-x-x-x-x-x-x-x-x-x-x-x-x-7-7-7-7-|
G|-5-5-5-5-5-5-5-5-5-5-5-5-7-7-7-7-3-3-3-3-3-3-3-3-3-3-3-3---------|
C|-----------------------------------------------------------------|

Guitar 4:
D|---------------------------------------------------------------------------------|
A|---------------------------------------------------------------------------------|
F|-11-11-11-11-11-11-11-11-11-11-11-11-12-12-12-12-9-9-9-9-9-9-9-9-9-9-9-9---------|
C|--x--x--x--x--x--x--x--x--x--x--x--x--x--x--x--x-x-x-x-x-x-x-x-x-x-x-x-x-7-7-7-7-|
G|--9--9--9--9--9--9--9--9--9--9--9--9-10-10-10-10-7-7-7-7-7-7-7-7-7-7-7-7---------|
C|---------------------------------------------------------------------------------|

=================================
Guitars 1 and 2:
D|-------------------------------------------------------------|
A|-------------------------------------------------------------|
F|-------------------------------------------------------------|
C|-9-9-9-9----9-9-9-9----9-9-9-9----9-9-9-9----5-5-5-5-7-7-7-7-|
G|-9-9-9-9----9-9-9-9----9-9-9-9----9-9-9-9----5-5-5-5-7-7-7-7-|
C|-9-9-9-9----9-9-9-9----9-9-9-9----9-9-9-9----5-5-5-5-7-7-7-7-|

Guitars 1 and 2:
D|-------------------------------------------------------------|
A|-------------------------------------------------------------|
F|-------------------------------------------------------------|
C|-9-9-9-9----9-9-9-9----9-9-9-9----9-9-9-9----5-5-5-5-4-4-4-4-|
G|-9-9-9-9----9-9-9-9----9-9-9-9----9-9-9-9----5-5-5-5-4-4-4-4-|
C|-9-9-9-9----9-9-9-9----9-9-9-9----9-9-9-9----5-5-5-5-4-4-4-4-|

Guitars 1 and 2:
D|-------------------------------------------------------------|
A|-------------------------------------------------------------|
F|-------------------------------------------------------------|
C|-9-9-9-9----9-9-9-9----9-9-9-9----9-9-9-9----5-5-5-5-7-7-7-7-|
G|-9-9-9-9----9-9-9-9----9-9-9-9----9-9-9-9----5-5-5-5-7-7-7-7-|
C|-9-9-9-9----9-9-9-9----9-9-9-9----9-9-9-9----5-5-5-5-7-7-7-7-|

===============================
Guitars 1 and 2:
D|-----------------------------------------------------------------------------|
A|-----------------------------------------------------------------------------|
F|-7-7-7-7-7-7-7-7-7-7-7-7-9-9-9-9---------------------------------------------|
C|-7-7-7-7-7-7-7-7-7-7-7-7-9-9-9-9-10-10-10-10-10-10-10-10-10-10-10-10-7-7-7-7-|
G|-5-5-5-5-5-5-5-5-5-5-5-5-7-7-7-7-10-10-10-10-10-10-10-10-10-10-10-10-7-7-7-7-|
C|---------------------------------10-10-10-10-10-10-10-10-10-10-10-10-7-7-7-7-|

Guitar 3:
D|-----------------------------------------------------------------|
A|-----------------------------------------------------------------|
F|-7-7-7-7-7-7-7-7-7-7-7-7-9-9-9-9-5-5-5-5-5-5-5-5-5-5-5-5---------|
C|-x-x-x-x-x-x-x-x-x-x-x-x-x-x-x-x-x-x-x-x-x-x-x-x-x-x-x-x-7-7-7-7-|
G|-5-5-5-5-5-5-5-5-5-5-5-5-7-7-7-7-3-3-3-3-3-3-3-3-3-3-3-3---------|
C|-----------------------------------------------------------------|

Guitar 4:
D|---------------------------------------------------------------------------------|
A|---------------------------------------------------------------------------------|
F|-11-11-11-11-11-11-11-11-11-11-11-11-12-12-12-12-9-9-9-9-9-9-9-9-9-9-9-9---------|
C|--x--x--x--x--x--x--x--x--x--x--x--x--x--x--x--x-x-x-x-x-x-x-x-x-x-x-x-x-7-7-7-7-|
G|--9--9--9--9--9--9--9--9--9--9--9--9-10-10-10-10-7-7-7-7-7-7-7-7-7-7-7-7---------|
C|---------------------------------------------------------------------------------|

End of Verse 2.
==================================
Chorus 2:

Guitar 1:
D|-----------------------------------------------------------------------------------------------|
A|-----------------------------------------------------------------------------------------------|
F|-----------------------------------------------------------------------------------------------|
C|-9~~-9--9~~~--4~~-4~~~--5--5-5--9~~~--9~~~--7~~~~--7~~~--12--11-12--9~~~-9~~--4~~-4~~~--5--5-5-|
G|-9~~-9--9~~~--4~~-4~~~--5--5-5--9~~~--9~~~--7~~~~--7~~~--12---x-12--9~~~-9~~--4~~-4~~~--5--5-5-|
C|-9~~-9--9~~~--4~~-4~~~--5--5-5--9~~~--9~~~--7~~~~--7~~~--12--11-12--9~~~-9~~--4~~-4~~~--5--5-5-|

Guitar 2:
D|-------7-5---------5-7-----------------7-5---------5-7-----------------7-5---------5-7-----------|
A|-------------------------------------------------------------------------------------------------|
F|-----7-----7--6--7-----7--7--6-7-----7-----7-----7-----7--7--6-7-----7-----7--6--7-----7--7--6-7-|
C|-7h9-----------------------------7h9----------7------------------7h9-----------------------------|
G|-------------------------------------------------------------------------------------------------|
C|-------------------------------------------------------------------------------------------------|

===================================
Guitar 1:
D|---------------------------------------|
A|---------------------------------------|
F|--------------------------------7--6-7-|
C|-12~~~--12~~-----14~~~--14------x--x-x-|
G|-12~~~--12~~--x--14~~~--14---x--5--4-5-|
C|-12~~~--12~~--x--14~~~--14---x---------|

Guitar 2:
D|-----------------------------------------7~~~~-|
A|----10---10-10-----10-----10-------------------|
F|-9-----7----------------------7--6-7-----------|
C|----------------9------9--------------9--------|
G|-----------------------------------------------|
C|-----------------------------------------------|

End of Chorus 2.
======================================
Interlude: This is the "talking part."

Guitar 1:
D|---------------------|
A|---------------------|
F|---------------------|
C|-9~~~~~~~~~~~~~~~~~~-| x1
G|-9~~~~~~~~~~~~~~~~~~-|
C|-9~~~~~~~~~~~~~~~~~~-|

Guitar 2: use an octave pedal.
D|--------------------------------|
A|--------------------------------|
F|-----0------0-------0---------0-|
C|---4---4~~~----4~~~----4----4---| x10
G|-2------------------------0-----|
C|--------------------------------|

End of Interlude.
=======================================
Break:

Guitars 1 and 2:
D|----------------------------------------------|
A|----------------------------------------------|
F|----------------------------------------------|
C|-9-9-9-9----9-9-9-9----9-9-9-9----9-9-9-9-----|
G|-9-9-9-9----9-9-9-9----9-9-9-9----9-9-9-9-----|
C|-9-9-9-9----9-9-9-9----9-9-9-9----9-9-9-9-----|

End of Break.
=======================================
Verse 3:

Guitars 1 and 2:
D|-------------------------------------------------------------|
A|-------------------------------------------------------------|
F|-------------------------------------------------------------|
C|-9-9-9-9----9-9-9-9----9-9-9-9----9-9-9-9----5-5-5-5-7-7-7-7-|
G|-9-9-9-9----9-9-9-9----9-9-9-9----9-9-9-9----5-5-5-5-7-7-7-7-|
C|-9-9-9-9----9-9-9-9----9-9-9-9----9-9-9-9----5-5-5-5-7-7-7-7-|

Guitars 1 and 2:
D|-------------------------------------------------------------|
A|-------------------------------------------------------------|
F|-------------------------------------------------------------|
C|-9-9-9-9----9-9-9-9----9-9-9-9----9-9-9-9----5-5-5-5-4-4-4-4-|
G|-9-9-9-9----9-9-9-9----9-9-9-9----9-9-9-9----5-5-5-5-4-4-4-4-|
C|-9-9-9-9----9-9-9-9----9-9-9-9----9-9-9-9----5-5-5-5-4-4-4-4-|

Guitars 1 and 2:
D|-------------------------------------------------------------|
A|-------------------------------------------------------------|
F|-------------------------------------------------------------|
C|-9-9-9-9----9-9-9-9----9-9-9-9----9-9-9-9----5-5-5-5-7-7-7-7-|
G|-9-9-9-9----9-9-9-9----9-9-9-9----9-9-9-9----5-5-5-5-7-7-7-7-|
C|-9-9-9-9----9-9-9-9----9-9-9-9----9-9-9-9----5-5-5-5-7-7-7-7-|

===============================
Guitars 1 and 2:
D|-----------------------------------------------------------------------------|
A|-----------------------------------------------------------------------------|
F|-7-7-7-7-7-7-7-7-7-7-7-7-9-9-9-9---------------------------------------------|
C|-7-7-7-7-7-7-7-7-7-7-7-7-9-9-9-9-10-10-10-10-10-10-10-10-10-10-10-10-7-7-7-7-|
G|-5-5-5-5-5-5-5-5-5-5-5-5-7-7-7-7-10-10-10-10-10-10-10-10-10-10-10-10-7-7-7-7-|
C|---------------------------------10-10-10-10-10-10-10-10-10-10-10-10-7-7-7-7-|

Guitar 3:
D|-----------------------------------------------------------------|
A|-----------------------------------------------------------------|
F|-7-7-7-7-7-7-7-7-7-7-7-7-9-9-9-9-5-5-5-5-5-5-5-5-5-5-5-5---------|
C|-x-x-x-x-x-x-x-x-x-x-x-x-x-x-x-x-x-x-x-x-x-x-x-x-x-x-x-x-7-7-7-7-|
G|-5-5-5-5-5-5-5-5-5-5-5-5-7-7-7-7-3-3-3-3-3-3-3-3-3-3-3-3---------|
C|-----------------------------------------------------------------|

Guitar 4:
D|---------------------------------------------------------------------------------|
A|---------------------------------------------------------------------------------|
F|-11-11-11-11-11-11-11-11-11-11-11-11-12-12-12-12-9-9-9-9-9-9-9-9-9-9-9-9---------|
C|--x--x--x--x--x--x--x--x--x--x--x--x--x--x--x--x-x-x-x-x-x-x-x-x-x-x-x-x-7-7-7-7-|
G|--9--9--9--9--9--9--9--9--9--9--9--9-10-10-10-10-7-7-7-7-7-7-7-7-7-7-7-7---------|
C|---------------------------------------------------------------------------------|

End of Verse 3.
==================================
Chorus 3:

Guitar 1:
D|-----------------------------------------------------------------------------------------------|
A|-----------------------------------------------------------------------------------------------|
F|-----------------------------------------------------------------------------------------------|
C|-9~~-9--9~~~--4~~-4~~~--5--5-5--9~~~--9~~~--7~~~~--7~~~--12--11-12--9~~~-9~~--4~~-4~~~--5--5-5-|
G|-9~~-9--9~~~--4~~-4~~~--5--5-5--9~~~--9~~~--7~~~~--7~~~--12---x-12--9~~~-9~~--4~~-4~~~--5--5-5-|
C|-9~~-9--9~~~--4~~-4~~~--5--5-5--9~~~--9~~~--7~~~~--7~~~--12--11-12--9~~~-9~~--4~~-4~~~--5--5-5-|

Guitar 2:
D|-------7-5---------5-7-----------------7-5---------5-7-----------------7-5---------5-7-----------|
A|-------------------------------------------------------------------------------------------------|
F|-----7-----7--6--7-----7--7--6-7-----7-----7-----7-----7--7--6-7-----7-----7--6--7-----7--7--6-7-|
C|-7h9-----------------------------7h9----------7------------------7h9-----------------------------|
G|-------------------------------------------------------------------------------------------------|
C|-------------------------------------------------------------------------------------------------|

===================================
Guitar 1:
D|---------------------------------------|
A|---------------------------------------|
F|--------------------------------7--6-7-|
C|-12~~~--12~~-----14~~~--14------x--x-x-|
G|-12~~~--12~~--x--14~~~--14---x--5--4-5-|
C|-12~~~--12~~--x--14~~~--14---x---------|

Guitar 2:
D|-----------------------------------------7~~~~-|
A|----10---10-10-----10-----10-------------------|
F|-9-----7----------------------7--6-7-----------|
C|----------------9------9--------------9--------|
G|-----------------------------------------------|
C|-----------------------------------------------|

End of Chorus 3.
====================================
Outro:

Guitar 1:
D|-----------------------------------------|
A|-----------------------------------------|
F|---11-11---10-10-------------------------|
C|-------------------11---12---11--------9-| x4
G|----------------------------------12-----|
C|-9-------9-------9----9----9----9----9---|

====================================
Guitar 1:
D|-------|
A|-------|
F|-------|
C|-9-----|
G|-9-----|
C|-9-----|


Please Rate And Comment.
Thanks everyone.
[travis]
Tap to rate this tab
 
# A B C D E F G H I J K L M N O P Q R S T U V W X Y Z