Song name
# A B C D E F G H I J K L M N O P Q R S T U V W X Y Z

Disturbed - Asylum tab

Song: Asylum(?)
Artist: Disturbed
Tabbed by: Zack Buster
Tuning: Drop C# (C#-G#-C#-F#-A#-D#)

This is from the clip that's been going around on YouTube.
I tried to figure it out by ear, and this is what I've come up with...

D#|-------------------------------|
A#|-------------------------------|
F#|-------------------------------|
C#|-----7h8p7--5h7p5--------------|
G#|----------8------6-8---5h6p5---|
C#|-0-0-----------------7------8--|
    * *

D#|-------------------------------|
A#|-------------------------------|
F#|-------------------------------|
C#|-----7h8p7--5---5h7p5----------|
G#|----------8---7------6-8---5-6-|
C#|-0-0---------------------7-----|
    * *

Again, this is JUST the portion that's been revealed so far.
If you have comments/corrections (I am VERY open to suggestions),
drop me an e-mail at ZackBusterZ@gmail.com.

Hopefully this is right, or at least close. Can't wait for the album
to be released on August 24th! Keep rocking, Disturbed Ones!
Tap to rate this tab
# A B C D E F G H I J K L M N O P Q R S T U V W X Y Z