Song name
# A B C D E F G H I J K L M N O P Q R S T U V W X Y Z

Disturbed - Asylum tab

Artist: Disturbed
Album:  Asylum
Song:   Asylum

Tabbed by: AremRed
Email: aremred@gmail.com

Tuning: Drop Db (Drop C#)

My first tab, hopefully I can finish the whole song soon! 
I can guarantee this tab is not perfect, but email me with improvement/criticism/jokes!

**NOTE: This is the way Dan Donegan plays it, which is not necessarily the easiest way.**


Chorus:
Eb|------------------------------------------------------------------------|
Bb|------------------------------------------------------------------------|
Gb|------------------------------------------------------------------------|
Db|--/7-------------1-2-----------------1-2-------2-----1------------------|
Ab|--/5--0-0-0-0-0--3-0--0-0-0-0-0------3-0--0-0--0--0--3--0-----0---------|
Db|------0-0-0-0-0-------0-0-0-0-0-000-------0-0-----0-----0-000-0-000-----|
         . . . . .       . . . . . ...       . .     .     . ... . ...

Eb|------------------------------------------------------------------------|
Bb|------------------------------------------------------------------------|
Gb|------------------------------------------------------------------------|
Db|--/7-------------1-2-----------------1-2-------2-----1--------5-5-5-----|
Ab|--/5--0-0-0-0-0--3-0--0-0-0-0-0------3-0--0-0--0--0--3--0-----5-5-5-----|
Db|------0-0-0-0-0-------0-0-0-0-0-000-------0-0-----0-----0-----5-5-5-----|
         . . . . .       . . . . . ...       . .     .     .     . . .

Eb|------------------------------------------------------------------------|
Bb|------------------------------------------------------------------------|
Gb|------------------------------------------------------------------------|
Db|--/7-------------1-2-----------------1-2-------2-----1------------------|
Ab|--/5--0-0-0-0-0--3-0--0-0-0-0-0------3-0--0-0--0--0--3--0-----0---------|
Db|------0-0-0-0-0-------0-0-0-0-0-000-------0-0-----0-----0-000-0-000-----|
         . . . . .       . . . . . ...       . .     .     . ... . ...

Eb|------------------------------------------------------------------------|
Bb|------------------------------------------------------------------------|
Gb|------------------------------------------------------------------------|
Db|------5-5555-555555-------10---9-----------9---10-9----9\7-------9------|
Ab|------5-5555-555555-----------------10--------------10-----10-9--7------|
Db|------5-5555-555555--5/7-----7---7------7-------------------------------|
                          .     .   .      .
Tap to rate this tab
# A B C D E F G H I J K L M N O P Q R S T U V W X Y Z