Song name
# A B C D E F G H I J K L M N O P Q R S T U V W X Y Z

Disturbed - Remnants tab

-------------------------------------------------------------------------------
			     Remnants - Disturbed
-------------------------------------------------------------------------------
Tabbed by: Onnet5
Email: onnet5@hotmail.com

Tuning: Half a step down (Eb Ab Db Gb Bb Eb)

eb|----------------------------------------------------5+---------------------|
Bb|-------------------------------------------------------5+--------7+--------|
Gb|---------------------------------------------------------------------7+----|
Db|---------------------------------------------------------------------------|
Ab|----7~----------<19>----<15>--------<12>-----------------------------------|
Eb|---------------------------------------------------------------------------|

eb|---------------------------------------------------------------------------|
Bb|------------------------------10br8----------------------------10~-----12~-|
Gb|--------7-9-9~----------7-9-7----------11-12-11~-------/11-----------------|
Db|---7h9-------------7h9-------------------------------------12--------------|
Ab|---------------------------------------------------------------------------|
Eb|---------------------------------------------------------------------------|

eb|-------------------14-15-15br14-15p14--------------------------------------|
Bb|------15~------/15--------------------15-----------------------------------|
Gb|------------------------------------------14b--14-----------------------15-|
Db|--------------------------------------------------17~-----------14--15b----|
Ab|--------------------------------------------------------14--17-------------|
Eb|---------------------------------------------------------------------------|

eb|---------------------------------------------------------------------------|
Bb|--15------------15b--15br15\-----------------------------------------------|
Gb|--15---14--12--------------------11-12-11-9----9-11-12-11-9----9-11-12-11--|
Db|--------------------------------------------12--------------12-------------|
Ab|---------------------------------------------------------------------------|
Eb|---------------------------------------------------------------------------|

eb|---------------------------------------------------------------------------|
Bb|---------------------------------------------------------------------------|
Gb|-9-11-12-11-9----9-11-12-11-9----9-11-12-11-9-14-16-14-12----12-14-16-14---|
Db|--------------12--------------12--------------------------16---------------|
Ab|---------------------------------------------------------------------------|
Eb|---------------------------------------------------------------------------|
                                                  (Slow bend)
eb|---------------------------------------------------------------------------|
Bb|-----------------------------------------------------------15b--15-13------|
Gb|-12----12-14-16-14-12----------------------13~--13br13-12-------------16-12|
Db|----16----------------15~--15~15~--15-12~----------------------------------|
Ab|---------------------------------------------------------------------------|
Eb|---------------------------------------------------------------------------|

eb|----------------------------------------15b-15--12-----17b-17br17--15----15|
Bb|---------------------------------------------------15-----------------17---|
Gb|---------------------14b-14~--12----12-------------------------------------|
Db|-14~--12---12-14-12--------------14----------------------------------------|
Ab|--------14-----------------------------------------------------------------|
Eb|---------------------------------------------------------------------------|

eb|-22b--22-20-------------------19-22-19-17----------------------------------|
Bb|------------22-24-22-20----20-------------22-24-22-20----------17--19--20--|
Gb|------------------------21----------------------------21---16--------------|
Db|---------------------------------------------------------------------------|
Ab|---------------------------------------------------------------------------|
Eb|---------------------------------------------------------------------------|

eb|---------------------------------------------------------------------------|
Bb|----22----20----19----17---------17--19---17/19\17-------------------------|
Gb|-16----16----16----16----16--19---------------------16/19\16---------------|
Db|--------------------------------------------------------------17/19\17-----|
Ab|---------------------------------------------------------------------------|
Eb|---------------------------------------------------------------------------|

eb|---------------------------------------------------------------------------|
Bb|-----------------15-15-----------------------------------------------------|
Gb|--------14--15b--15-15---14p12---------------------------------------------|
Db|-14--17-------------------------14~----------------------------------------|
Ab|---------------------------------------------------------------------------|
Eb|---------------------------------------------------------------------------|



************************************

| /   slide up
| \   slide down
| h   hammer-on
| p   pull-off
| ~   vibrato
| +   harmonic
| x   Mute note
| b   Bend
| pb  Pre-bend
| br  Bend release
| pbr Pre-bend release
| brb Bend release bend
| <>  Tap Harmonic

************************************
Tap to rate this tab
 
# A B C D E F G H I J K L M N O P Q R S T U V W X Y Z