Disturbed - Remnants tab

-------------------------------------------------------------------------------
			     Remnants - disturbed
-------------------------------------------------------------------------------
Tabbed by: Morbus1080


Tuning:Half step down

   Acoustic Intro
eb|---------------|---------------|-------0-------|----------------|
Bb|---------------|-------0-------|---------0-----|----------------|
Gb|-------0-------|-----0---0---0-|-----0-----0---|-------0--------|
Db|-----2---2---2-|---2-------2---|---2---------2-|-----3---2---0--|
Ab|---2-------2---|-3-------------|---------------|---3-------3----|
Eb|-0-------------|---------------|-2-------------|-1--------------|

Guitar Solo
eb|-----------------------------5+-------------|-------------------------------|
Bb|-------------------------------5+----7+-----|-----------------------9b10----|br9
Gb|-----------------------------------------7+-|-----7-9-9~---7---9-7-9--------|
Db|--------------------------------------------|--/9------------9--------------|
Ab|-/7~~-----19*---14*---12*-------------------|-------------------------------|
Eb|--------------------------------------------|-------------------------------|

eb|-------------------------|----14-15-15b-15p14h15p14-------------------------|
Bb|10-9-7-h8-p7-/10-/12-/15-|-15----------------------15-12--------------------|
Gb|-------------------------|-------------------------------14-12----12-14-14--|b
Db|-------------------------|-------------------------------------14-----------|
Ab|-------------------------|--------------------------------------------------|
Eb|-------------------------|--------------------------------------------------|

eb|-----------------------|------------------------------------------------|
Bb|---------14b-15-15~-15-|-7h8p7-----7h8p7-----7h8p7-7h8p7-----7h8p7------|
Gb|---14-12---------------|------9p7h9-----9p7h9-----9-----9p7h9-----9p7h9-|
Db|15---------------------|------------------------------------------------|
Ab|-----------------------|------------------------------------------------|
Eb|-----------------------|------------------------------------------------|

eb|----------------|----------------------------------------------------------|
Bb|7h8p7-----7h8p7-|10h12p10--------10h12p10--------10h12p10------------------|
Gb|-----9p7h9-----9|--------12p11h12--------12p11h12--------1212p10~10~10~10~-|
Db|----------------|----------------------------------------------------------|
Ab|----------------|----------------------------------------------------------|
Eb|----------------|----------------------------------------------------------|

eb|---------------15b-15-12-----17b-17-15---15---22b-22-21-17h19p17--------19h23p19-|
Bb|---9-9b-pb9-8------------15------------17-----------------------20p17h21---------|
Gb|\7-------------------------------------------------------------------------------|
Db|---------------------------------------------------------------------------------|
Ab|---------------------------------------------------------------------------------|
Eb|---------------------------------------------------------------------------------|

eb|--17h19p17---------|----------------17----------------------------------------|
Bb|20--------20p17----|-15-17-19-20----------20----17----17-------17-18-17h19p17-|
Gb|-------------------|-------------16----16----16----16----16-------------------|
Db|---------------1919|----------------------------------------19----------------|
Ab|-------------------|----------------------------------------------------------|
Eb|-------------------|----------------------------------------------------------|

eb|------------------------------------------|
Bb|------------------------------------------|
Gb|16/19\16-12/14\12----12h14-14b-pb14--12---|
Db|------------------14-------------------14~|
Ab|------------------------------------------|
Eb|------------------------------------------|

************************************

| /   slide up
| \   slide down
| h   hammer-on
| p   pull-off
| ~   vibrato
| +   harmonic
| *   harmonic (finger tap)
| x   Mute note
| b   Bend
| pb  Pre-bend
| br  Bend release
| pbr Pre-bend release
| brb Bend release bend

************************************

***Thanks to EliteBouncer for corrections***
Tap to rate this tab
 
# A B C D E F G H I J K L M N O P Q R S T U V W X Y Z