Disturbed - My Child tab

My Child-Disturbed off of Asylum. Tabbed by yanksandjetsfan.  The tuning is drop d down 
half step (Drop C# or Drop Db).  Very fun song!
Should be 100% right.    *=palm mute

Intro (Play twice)
Eb ---------------------------------------------------------------|
Bb ---------------------------------------------------------------|
Gb ---------------------------------------------------------------|
Db ---------------------------------------------------------------|
Ab ---------------------------------------------------------------|
Db 3-0-0-6-0-0-3-0-0-3-0-0-8-0-7-7--3-0-0-6-0-3-0-3-0-0-0-0-6-5-6-|

Verse Part 1 (Play twice)
Eb ---------------------------------------------------------------|
Bb ---------------------------------------------------------------|
Gb ---------------------------------------------------------------|
Db ---------------------------------------------------------------|
Ab ---------------------------------------------------------------|
Db 3-0-0-6-0-0-3-0-0-3-0-0-8-0-7-7--3-0-0-6-0-3-0-3-0-0-0-0-6-5-6-|
   * * * * * * * * * * * * * * * *  * * * * * * * * * * * * * * *
Verse Part 2 (Play twice)
Eb ---------------------------------------------------------------|
Bb ---------------------------------------------------------------|
Gb ---------------------------------------------------------------|
Db ---------------------------------------------------------------|
Ab ---------------------------------------------------------------|
Db 3-0-0-6-0-0-3-0-0-3-0-0-8-0-7-7--3-0-0-6-0-3-0-3-0-0-0-0-6-5-6-|

Pre Chorus (Play twice)
Eb ----------------------------------------------------------------|
Bb ----------------------------------------------------------------|
Gb ----------------------------------------------------------------|
Db ----------------------------------------------------------------|
Ab ----------------------------------------------------------------|
Db 5-5-5-6-6-0-0-0-0-3-3-3-5-5-5-6-6-6-0-0-3-3-0-0-3-3-2-2-3-3-8-8-|
   * * * * * * * * * * * * * * * * * * * * * * * * * * * * * * * *
Chorus (Play twice)
Eb -----------------------------------------------------------------|
Bb -----------------------------------------------------------------|
Gb -----------------------------------------------------------------|
Db 1------------6-5------------0----------------1---------------1-0-|
Ab 1------------6-5------------0----------------1---------------1-0-|
Db 1------------6-5------------0----------------1---------------1-0-|

Play Verse Part 1
Play Verse Part 2
Play Pre Chorus
Play Chorus

Breakdown (With Flanger effect, Play 4 times)
Eb -----------------------------------------------------------------|
Bb -----------------------------------------------------------------|
Gb -----------------------------------------------------------------|
Db ----7-8-7---7---5-7-5---5-----------7-8-7---5-7-5---5------------|
Ab ----------8---8-------6---6-5-6-----------8-------6---6-5-6-5----|
Db 5-5-----------------------------5-5----------------------------8-|
   * *                             * *

Play Chorus

Outro (Play twice)
Eb ---------------------------------------------------------------|
Bb ---------------------------------------------------------------|
Gb ---------------------------------------------------------------|
Db ---------------------------------------------------------------|
Ab ---------------------------------------------------------------|
Db 3-0-0-6-0-0-3-0-0-3-0-0-8-0-7-7--3-0-0-6-0-3-0-3-0-0-0-0-6-5-6-|

Thats it, enjoy!
Tap to rate this tab
 
# A B C D E F G H I J K L M N O P Q R S T U V W X Y Z