Song name
# A B C D E F G H I J K L M N O P Q R S T U V W X Y Z

Disturbed - Serpentine tab

This is my very first tab, I'm not finished with this yet, but I'll update it when 
I have more time. XP 

Tabbed by:Victor827
Email:Creature827@yahoo.com

Tuning:CGCFAD

D|---------------------------------------------------------------------------|
A|---------------------------------------------------------------------------|
F|---------------------------------------------------------------------------|
C|---------------------------------------------------------------------------|
G|7-7-7-7-7-7-5-5-5-5-5-5-7-7-7-7-8-8-8-8-8-8-7-7-7-7-7-7-8-8-8-8-12-12-12---|
C|---------------------------------------------------------------------------|

D|---------------------------------------------------------------------------|
A|---------------------------------------------------------------------------|
F|---------------------------------------------------------------------------|
C|---------------------------------------------------------------------------|
G|12-12-12-8-8-8-8-8-8-10-10-10-10-10-10-10-10-10-10-10-10-10-10-10-10-10-10-|
C|---------------------------------------------------------------------------|

D|---------------------------------------------------------------------------|
A|---------------------------------------------------------------------------|
F|---------------------------------------------------------------------------|
C|---------------------------------------------------------------------------|
G|10-10----------------------------------------------------------------------|
C|---------------------------------------------------------------------------|

D|---------------------------------------------------------------------------|
A|---------------------------------------------------------------------------|
F|---------------------------------------------------------------------------|
C|---------------------------------------------------------------------------|
G|7-7-7-7-7-7-5-5-5-5-5-5-7-7-7-7-8-8-8-8-8-8-7-7-7-7-7-7-8-8-8-8-12-12-12---|
C|---------------------------------------------------------------------------|

D|---------------------------------------------------------------------------|
A|---------------------------------------------------------------------------|
F|---------------------------------------------------------------------------|
C|---------------------------------------------------------------------------|
G|12-12-12-8-8-8-8-8-8-10-10-10-10-5-5-5-5-5-5-5-5-5-5-5-5-5-5-5-5-----------|
C|---------------------------------------------------------------------------|


D|---------------------------------------------------------------------------|
A|---------------------------------------------------------------------------|
F|---------------------------------------------------------------------------|
C|0--------------------------------------------------------------------------|
G|0--------------------------------------------------------------------------|
C|---------------------------------------------------------------------------|

Pre-Chorus ***
D|---------------------------------------------------------------------------|
A|---------------------------------------------------------------------------|
F|---------------------------------------------------------------------------|
C|---------------------------------------------------------------------------|
G|8\7-----7-----7---7----7\5---5/8\7------7-----7---7-----7\5----------------|
C|----0-0---0-0---0---0-0-----0-------0-0---0-0---0---0-0-----0--------------|

D|---------------------------------------------------------------------------|
A|---------------------------------------------------------------------------|
F|---------------------------------------------------------------------------|
C|---------------------------------------------------------------------------|
G|5-5/7-----7-----7---7-----7\5---5-5/8-----8-----8---5---555---5------------|
C|------0-0---0-0---0---0-0-----0-------0-0---0-0---0---0-----0--------------|
  *** second pre-chorus the last two notes aren't played.

D|---------------------------------------------------------------------------|
A|---------------------------------------------------------------------------|
F|---------------------------------------------------------------------------|
C|8-----------------10---------------5----------------3----------------------|
G|8-----------------10---------------5----------------3----------------------|
C|8-----------------10---------------5----------------3----------------------|  
*12 times          *4 times        *12 times       *4 times

D|---------------------------------------------------------------------------|
A|---------------------------------------------------------------------------|
F|---------------------------------------------------------------------------|
C|8-----------------10---------------5----------------3----------------------|
G|8-----------------10---------------5----------------3----------------------|
C|8-----------------10---------------5----------------3----------------------| 
*12 times          *4 times        *9 times         *7 times
                                     (slight pause)



************************************

| /   slide up
| \   slide down
| h   hammer-on
| p   pull-off
| ~   vibrato
| +   harmonic
| x   Mute note
| b   Bend
| pb  Pre-bend
| br  Bend release
| pbr Pre-bend release
| brb Bend release bend

************************************
Tap to rate this tab
 
# A B C D E F G H I J K L M N O P Q R S T U V W X Y Z