Song name
# A B C D E F G H I J K L M N O P Q R S T U V W X Y Z

Disturbed - God Of The Mind tab

                             God of the Mind                                 

100% note-for-note. GL HF
                                Disturbed



 INTRO
      C#5 F#5 C#5 G5 C#5 F#5 C#5 G5 G5 A5 A5  B5 
      S   E   S   E  S   E   S   E  S  S  S   S  
D#||--------------------------------------------|
A#||--------------------------------------------|
F#||--------------------------------------------|
C#||--0---5---0---6--0---5---0---6--6--8--8--10-|
G#||--0---5---0---6--0---5---0---6--6--8--8--10-|
C#||--0---5---0---6--0---5---0---6--6h-8--8h-10-|


  C#5 F#5 C#5 G5 C#5 F#5 C#5 G5 G5 A5 C#5 E5  
  S   E   S   E  S   E   S   E  S  S  S   S   
---------------------------------------------|
---------------------------------------------|
---------------------------------------------|
--0---5---0---6--0---5---0---6--6--8--0---3--|
--0---5---0---6--0---5---0---6--6--8--0---3--|
--0---5---0---6--0---5---0---6--6h-8--0---3--|


  C#5 F#5 C#5 G5 C#5 F#5 C#5 G5 G5 A5 A5  B5 
  S   E   S   E  S   E   S   E  S  S  S   S  
--------------------------------------------|
--------------------------------------------|
--------------------------------------------|
--0---5---0---6--0---5---0---6--6--8--8--10-|
--0---5---0---6--0---5---0---6--6--8--8--10-|
--0---5---0---6--0---5---0---6--6h-8--8h-10-|


  C#5 F#5 C#5 G5 C#5 F#5 C#5 G5          
  S   E   S   E  S   E   S   E    Q      
----------------------------------------|
----------------------------------------|
----------------------------------------|
--0---5---0---6--0---5---0---6----------|
--0---5---0---6--0---5---0---6----------|
--0---5---0---6--0---5---0---6--/22~----|


  C#5 F#5 C#5 G5 C#5 F#5 C#5 G5 G5 A5 A5  B5 
  S   E   S   E  S   E   S   E  S  S  S   S  
--------------------------------------------|
--------------------------------------------|
--------------------------------------------|
--0---5---0---6--0---5---0---6--6--8--8--10-|
--0---5---0---6--0---5---0---6--6--8--8--10-|
--0---5---0---6--0---5---0---6--6h-8--8h-10-|


  C#5 F#5 C#5 G5 C#5 F#5 C#5 G5 G5 A5 C#5 E5  
  S   E   S   E  S   E   S   E  S  S  S   S   
---------------------------------------------|
---------------------------------------------|
---------------------------------------------|
--0---5---0---6--0---5---0---6--6--8--0---3--|
--0---5---0---6--0---5---0---6--6--8--0---3--|
--0---5---0---6--0---5---0---6--6h-8--0---3--|


  C#5 F#5 C#5 G5 C#5 F#5 C#5 G5 G5 A5 A5  B5 
  S   E   S   E  S   E   S   E  S  S  S   S  
--------------------------------------------|
--------------------------------------------|
--------------------------------------------|
--0---5---0---6--0---5---0---6--6--8--8--10-|
--0---5---0---6--0---5---0---6--6--8--8--10-|
--0---5---0---6--0---5---0---6--6h-8--8h-10-|


  C#5 F#5 C#5 G5 C#5 F#5 C#5 G5 G5 A5 C#5 E5    C#5               
  S   E   S   E  S   E   S   E  S  S  S   S     W                 
---------------------------------------------|-------------------|
---------------------------------------------|-------------------|
---------------------------------------------|-------------------|
--0---5---0---6--0---5---0---6--6--8--0---3--|--0----------------|
--0---5---0---6--0---5---0---6--6--8--0---3--|--0----------------|
--0---5---0---6--0---5---0---6--6h-8--0---3--|--0----------------|


  C#5                 C#5                 C#5               
  W                   W                   W                 
-------------------|-------------------|-------------------|
-------------------|-------------------|-------------------|
-------------------|-------------------|-------------------|
--L----------------|--L----------------|--L----------------|
--L----------------|--L----------------|--L----------------|
--L----------------|--L----------------|--L----------------|

VERSE
  PM PM PM PM PM PM PM PM PM PM PM    PM PM PM PM PM PM PM PM PM     
  S  E  S  E  S  E  S  E  S  E  S     E  S  E  S  E  S  E  S  E  E   
-----------------------------------|--------------------------------|
-----------------------------------|--------------------------------|
-----------------------------------|--------------------------------|
-----------------------------------|--------------------------------|
--3--5--3--5--3--5--3--5--3--5--3--|--5--3--5--3--5--3--5--3--5--6--|
-----------------------------------|--------------------------------|


  PM PM PM PM PM PM PM PM PM PM PM    PM PM PM PM PM PM PM PM        
  S  E  S  E  S  E  S  E  S  E  S     E  S  E  S  E  S  E  S  E  E   
-----------------------------------|--------------------------------|
-----------------------------------|--------------------------------|
-----------------------------------|--------------------------------|
-----------------------------------|--------------------------------|
--3--5--3--5--3--5--3--5--3--5--3--|--5--3--5--3--5--3--5--3--5--6--|
-----------------------------------|--------------------------------|


  PM PM PM PM PM PM PM PM          PM PM PM PM PM PM PM PM        
  S  E  S  E  S  E  S  E  E  E     S  E  S  E  S  E  S  E  E  E   
--------------------------------|--------------------------------|
--------------------------------|--------------------------------|
--------------------------------|--------------------------------|
--------------------------------|--------------------------------|
--3--5--3--5--3--5--3--5--5--6--|--3--5--3--5--3--5--3--5--5--6--|
--------------------------------|--------------------------------|


  PM PM PM PM PM PM PM PM                                     
  S  E  S  E  S  E  S  E  E  E     S E  S E  S E  S E  E  E   
--------------------------------|----------------------------|
--------------------------------|----------------------------|
--------------------------------|----------------------------|
--------------------------------|----------------------------|
--3--5--3--5--3--5--3--5--5--6--|--3-5--3-5--3-5--3-5--5--6--|
--------------------------------|----------------------------|

PRE-CHORUS
  C#5 F#5 C#5 G5 C#5 F#5 C#5 G5 G5 A5 A5  B5 
  S   E   S   E  S   E   S   E  S  S  S   S  
--------------------------------------------|
--------------------------------------------|
--------------------------------------------|
--0---5---0---6--0---5---0---6--6--8--8--10-|
--0---5---0---6--0---5---0---6--6--8--8--10-|
--0---5---0---6--0---5---0---6--6h-8--8h-10-|


  C#5 F#5 C#5 G5 C#5 F#5 C#5 G5 G5 A5 C#5 E5  
  S   E   S   E  S   E   S   E  S  S  S   S   
---------------------------------------------|
---------------------------------------------|
---------------------------------------------|
--0---5---0---6--0---5---0---6--6--8--0---3--|
--0---5---0---6--0---5---0---6--6--8--0---3--|
--0---5---0---6--0---5---0---6--6h-8--0---3--|


  C#5 F#5 C#5 G5 C#5 F#5 C#5 G5 G5 A5 A5  B5 
  S   E   S   E  S   E   S   E  S  S  S   S  
--------------------------------------------|
--------------------------------------------|
--------------------------------------------|
--0---5---0---6--0---5---0---6--6--8--8--10-|
--0---5---0---6--0---5---0---6--6--8--8--10-|
--0---5---0---6--0---5---0---6--6h-8--8h-10-|

                                                /w WAH
  C#5 F#5 C#5 G5 C#5 F#5 C#5 G5 G5 A5 C#5 E5                               
  S   E   S   E  S   E   S   E  S  S  S   S     E  S E  S E  S E  S E  E   
---------------------------------------------|----------------------------|
---------------------------------------------|----------------------------|
---------------------------------------------|----------------------------|
--0---5---0---6--0---5---0---6--6--8--0---3--|--0--0-3--3-0--0-3--3-0--3--|
--0---5---0---6--0---5---0---6--6--8--0---3--|----------------------------|
--0---5---0---6--0---5---0---6--6h-8--0---3--|----------------------------|

CHORUS
  C#5 E5  C#5 E5  C#5 E5    C#5 E5  C#5 E5  C#5 E5    C#5 E5  C#5 E5  C#5 E5  
  E.  E.  E.  E.  E   E     E.  E.  E.  E.  E   E     E.  E.  E.  E.  E   E   
-------------------------|-------------------------|------------------------|
-------------------------|-------------------------|------------------------|
-------------------------|-------------------------|------------------------|
--0---3---0---3---0---3--|--0---3---0---3---0---3--|--0---3---0---3---0---3-|
--0---3---0---3---0---3--|--0---3---0---3---0---3--|--0---3---0---3---0---3-|
--0---3---0---3---0---3--|--0---3---0---3---0---3--|--0---3---0---3---0---3-|


  C#5 E5  C#5 E5  C#5 E5                                          
  E.  E.  E.  E.  E   E     W                   W                 
-------------------------|-------------------|-------------------|
-------------------------|-------------------|-------------------|
-------------------------|-------------------|-------------------|
--0---3---0---3---0---3--|-------------------|-------------------|
--0---3---0---3---0---3--|-------------------|-------------------|
--0---3---0---3---0---3--|-------------------|-------------------|


                                Pick Slide                
  <   Fade In                                                    
  W                    H          
--------------------|---------------------------|
--------------------|---------------------------|
--------------------|---------------------------|
--------------------|---------------------------|
--5~----------------|--L------/////////////////-|
--------------------|---------/////////////////-|

VERSE
  PM PM PM PM PM PM PM PM PM PM PM    PM PM PM PM PM PM PM PM PM     
  S  E  S  E  S  E  S  E  S  E  S     E  S  E  S  E  S  E  S  E  E   
-----------------------------------|--------------------------------|
-----------------------------------|--------------------------------|
-----------------------------------|--------------------------------|
-----------------------------------|--------------------------------|
--3--5--3--5--3--5--3--5--3--5--3--|--5--3--5--3--5--3--5--3--5--6--|
-----------------------------------|--------------------------------|


  PM PM PM PM PM PM PM PM PM PM PM    PM PM PM PM PM PM PM PM        
  S  E  S  E  S  E  S  E  S  E  S     E  S  E  S  E  S  E  S  E  E   
-----------------------------------|--------------------------------|
-----------------------------------|--------------------------------|
-----------------------------------|--------------------------------|
-----------------------------------|--------------------------------|
--3--5--3--5--3--5--3--5--3--5--3--|--5--3--5--3--5--3--5--3--5--6--|
-----------------------------------|--------------------------------|


  PM PM PM PM PM PM PM PM          PM PM PM PM PM PM PM PM        
  S  E  S  E  S  E  S  E  E  E     S  E  S  E  S  E  S  E  E  E   
--------------------------------|--------------------------------|
--------------------------------|--------------------------------|
--------------------------------|--------------------------------|
--------------------------------|--------------------------------|
--3--5--3--5--3--5--3--5--5--6--|--3--5--3--5--3--5--3--5--5--6--|
--------------------------------|--------------------------------|


  PM PM PM PM PM PM PM PM                                     
  S  E  S  E  S  E  S  E  E  E     S E  S E  S E  S E  E  E   
--------------------------------|----------------------------|
--------------------------------|----------------------------|
--------------------------------|----------------------------|
--------------------------------|----------------------------|
--3--5--3--5--3--5--3--5--5--6--|--3-5--3-5--3-5--3-5--5--6--|
--------------------------------|----------------------------|

PRE-CHORUS
  C#5 F#5 C#5 G5 C#5 F#5 C#5 G5 G5 A5 A5  B5 
  S   E   S   E  S   E   S   E  S  S  S   S  
--------------------------------------------|
--------------------------------------------|
--------------------------------------------|
--0---5---0---6--0---5---0---6--6--8--8--10-|
--0---5---0---6--0---5---0---6--6--8--8--10-|
--0---5---0---6--0---5---0---6--6h-8--8h-10-|


  C#5 F#5 C#5 G5 C#5 F#5 C#5 G5 G5 A5 C#5 E5  
  S   E   S   E  S   E   S   E  S  S  S   S   
---------------------------------------------|
---------------------------------------------|
---------------------------------------------|
--0---5---0---6--0---5---0---6--6--8--0---3--|
--0---5---0---6--0---5---0---6--6--8--0---3--|
--0---5---0---6--0---5---0---6--6h-8--0---3--|


  C#5 F#5 C#5 G5 C#5 F#5 C#5 G5 G5 A5 A5  B5 
  S   E   S   E  S   E   S   E  S  S  S   S  
--------------------------------------------|
--------------------------------------------|
--------------------------------------------|
--0---5---0---6--0---5---0---6--6--8--8--10-|
--0---5---0---6--0---5---0---6--6--8--8--10-|
--0---5---0---6--0---5---0---6--6h-8--8h-10-|

                                              /w WAH
  C#5 F#5 C#5 G5 C#5 F#5 C#5 G5 G5 A5 C#5 E5                               
  S   E   S   E  S   E   S   E  S  S  S   S     E  S E  S E  S E  S E  E   
---------------------------------------------|----------------------------|
---------------------------------------------|----------------------------|
---------------------------------------------|----------------------------|
--0---5---0---6--0---5---0---6--6--8--0---3--|--0--0-3--3-0--0-3--3-0--3--|
--0---5---0---6--0---5---0---6--6--8--0---3--|----------------------------|
--0---5---0---6--0---5---0---6--6h-8--0---3--|----------------------------|

CHORUS
  C#5 E5  C#5 E5  C#5 E5    C#5 E5  C#5 E5  C#5 E5    C#5 E5  C#5 E5  C#5 E5  
  E.  E.  E.  E.  E   E     E.  E.  E.  E.  E   E     E.  E.  E.  E.  E   E   
-------------------------|-------------------------|------------------------|
-------------------------|-------------------------|------------------------|
-------------------------|-------------------------|------------------------|
--0---3---0---3---0---3--|--0---3---0---3---0---3--|--0---3---0---3---0---3-|
--0---3---0---3---0---3--|--0---3---0---3---0---3--|--0---3---0---3---0---3-|
--0---3---0---3---0---3--|--0---3---0---3---0---3--|--0---3---0---3---0---3-|


  C#5 E5  C#5 E5  C#5 E5    C#5                                       
  E.  E.  E.  E.  E   E     E   H        Q    E     W                 
-------------------------|-----------------------|-------------------|
-------------------------|-----------------------|-------------------|
-------------------------|-----------------------|-------------------|
--0---3---0---3---0---3--|--0--------------------|-------------------|
--0---3---0---3---0---3--|--0--------------------|-------------------|
--0---3---0---3---0---3--|--0--------------------|-------------------|

Interlude
        PM PM PM       PM PM PM PM   NH  NH  NH 
    E.  S  S  S    E.  S  S  S  S    S   S   S  
-----------------------------------------------|
-----------------------------------------------|
-----------------------------------------------|
-------------------------------------------<>5-|
--5/6------------5/6-------------------<>5-----|
--5/6---0--0--0--5/6---0--0--0--0--<>5---------|


        PM PM PM       PM PM PM PM PM      
    E.  S  S  S    E.  S  S  S  S  S  E    
------------------------------------------|
--------------------------------------4---|
--------------------------------------6b--|
------------------------------------------|
--5/6------------5/6----------------------|
--5/6---0--0--0--5/6---0--0--0--0--0------|


        PM PM PM       PM PM PM PM   NH  NH  NH 
    E.  S  S  S    E.  S  S  S  S    S   S   S  
-----------------------------------------------|
-----------------------------------------------|
-----------------------------------------------|
-------------------------------------------<>5-|
--5/6------------5/6-------------------<>5-----|
--5/6---0--0--0--5/6---0--0--0--0--<>5---------|


        PM PM PM       PM PM PM PM PM      
    E.  S  S  S    E.  S  S  S  S  S  E    
------------------------------------------|
--------------------------------------4---|
--------------------------------------6b--|
------------------------------------------|
--5/6------------5/6----------------------|
--5/6---0--0--0--5/6---0--0--0--0--0------|


        PM PM PM       PM PM PM PM   NH  NH  NH 
    E.  S  S  S    E.  S  S  S  S    S   S   S  
-----------------------------------------------|
-----------------------------------------------|
-----------------------------------------------|
-------------------------------------------<>5-|
--5/6------------5/6-------------------<>5-----|
--5/6---0--0--0--5/6---0--0--0--0--<>5---------|


        PM PM PM       PM PM PM PM PM      
    E.  S  S  S    E.  S  S  S  S  S  E    
------------------------------------------|
--------------------------------------4---|
--------------------------------------6b--|
------------------------------------------|
--5/6------------5/6----------------------|
--5/6---0--0--0--5/6---0--0--0--0--0------|


        PM PM PM       PM PM PM PM   NH  NH  NH         PM PM PM Gradually Slide Up
    E.  S  S  S    E.  S  S  S  S    S   S   S      E.  S  S  S  H        
-----------------------------------------------|----------------------------|
-----------------------------------------------|----------------------------|
-----------------------------------------------|----------------------------|
-------------------------------------------<>5-|----------------------------|
--5/6------------5/6-------------------<>5-----|--5/6------------5/////////L|
--5/6---0--0--0--5/6---0--0--0--0--<>5---------|--5/6---0--0--0--5/////////L|


                                                         C#5                    
    (Palm Mute Throughout)                            
    S  S  S  S  S  S  S  S  S  S  S  S  S  S  S  S   8x  E   H        Q   
|----------------------------------------------------||--------------------||
|----------------------------------------------------||--------------------||
|*--------------------------------------------------*||--------------------||
|*--------------------------------------------------*||--0-----------------||
|----------------------------------------------------||--0-----------------||
|---0--0--0--3--3--3--0--0--0--3--3--3--0--0--3--3---||--0-----------------||




Duration Legend
---------------
W - whole
H - half
Q - quarter
E - 8th
S - 16th
T - 32nd
X - 64th
. - note dotted
|-n-|  - n-tuplets


Tablature Legend
----------------
L - tied note
x - dead note
g - grace note
(n) - ghost note
> - accentuded note
NH - natural harmonic
AH - artificial harmonic
TH - tapped harmonic
SH - semi harmonic
PH - pitch harmonic
h - hammer on
p - pull off
b - bend
br - bendRelease
pb - preBend
pbr - preBendRelease
brb - bendReleaseBend
\n/ - tremolo bar dip
\n - tremolo bar dive
-/n - tremolo bar Release up
/n\ - tremolo bar inverted dip
/n - tremolo bar return
-\n - tremolo bar Release down
S - shift slide
s - legato slide
/ -  slide into from below or out of upwards
\ -  slide into from above or out of downwards
~ - vibrato
W - wide vibrato
tr - trill
TP - tremolo picking
T - tapping
S - slap
P - pop
< - fade in
^ - brush up
v - brush down
Tap to rate this tab
 
# A B C D E F G H I J K L M N O P Q R S T U V W X Y Z