Song name
# A B C D E F G H I J K L M N O P Q R S T U V W X Y Z

Disturbed - Intoxication tab

(Eb Ab Db Gb Bb Eb)


Intoxication Intro Tab
Part 1
Eb-4-1-0-0-3-1-0-0-0-1-3-0-4-1-0-0-3-1-0-1-1-1-3-0-|  X2
Ab-------------------------------------------------|
Db-------------------------------------------------|
Gb-------------------------------------------------|
Bb-------------------------------------------------|
Eb-------------------------------------------------|
Part 2
Eb-4-1-0-0-3-1-0-0-0-1-3-0-4-1-0-0-3-1-0-1-1-1-3-0-|  X2
Ab-4-1-0-0-3-1-0-0-0-1-3-0-4-1-0-0-3-1-0-1-1-1-3-0-|
Db-4-1-0-0-3-1-0-0-0-1-3-0-4-1-0-0-3-1-0-1-1-1-3-0-|
Gb-------------------------------------------------|
Bb-------------------------------------------------|
Eb-------------------------------------------------|
Tap to rate this tab
 
# A B C D E F G H I J K L M N O P Q R S T U V W X Y Z