Song name
# A B C D E F G H I J K L M N O P Q R S T U V W X Y Z

Disturbed - A Welcome Burden tab

Band- Disturbed
Song- A Welcome Burden
Album- Dracula 2000 Soundtrack
Tuning- Tune down 1/2 step:Drop D

Chorus
|---------------------------------------------------------------|
|---------------------------------------------------------------|
|---------------------------------------------------------------|
|-5-6-5-----5-6-5---5-6-5-----6-8-6---5-6-5-----5-6-5---1-3-1-3-|
|-3-4-3-4-3-3-4-3-4-3-4-3-4-3-4-6-4-6-3-4-3-4-3-3-4-3-4-1-3-1-3-|
|-------4-3-------4-------4-3-------6-------4-3-------4-1-3-1-3-|

|-----------------------------------------------------------------------|
|-----------------------------------------------------------------------|
|-----------------------------------------------------------------------|
|-5-6-5-----5-6-5---5-6-5-----6-8-6---5-6-5-----5-6-5---1-3-1-3-1-3-1-3-|
|-3-4-3-4-3-3-4-3-4-3-4-3-4-3-4-6-4-6-3-4-3-4-3-3-4-3-4-1-3-1-3-1-3-1-3-|
|-------4-3-------4-------4-3-------6-------4-3-------4-1-3-1-3-1-3-1-3-|

Verse
|----|--------------------|
|----|--------------------|
|-5~-|--------------------|
|-x~-|-10-13-10--10-13-10-|...Plays open after 14 times.
|-3~-|--------------------|
|----|--------------------|
P.M.   ..................

Pre-Chorus
|------------------|
|------------------|
|------------------|
|-3-6-3-5--3-6-3-5-|
|-3-6-3-5--3-6-3-5-|
|-3-6-3-5--3-6-3-5-|

Interlude
|------------------------------------|
|------------------------------------|
|------------------------------10-13-|
|-11-10-10--10-11-10--10-11-10-x--x--|
|-11-10-10--10-11-10--10-11-10-8--11-|
|-11-10-10--10-11-10--10-11-10-------|

|--------------------------------------|
|--------------------------------------|
|--------------------------------------|
|-11-10-10--10-11-10-10--10-11---------|
|-11-10-10--10-11-10-10--10-11-x\\-xxx-|
|-11-10-10--10-11-10-10--10-11-x\\-xxx-|

|-------------------------|
|-------------------------|
|-------------------------|
|-3-3-3-3-3-3-6-6-6-6-6-6-|
|-3-3-3-3-3-3-6-6-6-6-6-6-|
|-3-3-3-3-3-3-6-6-6-6-6-6-|

Outro Chorus
|-----------------|---------------------|
|---------x8------|-----x4--------------|
|-----------------|---------------------|
|---------6\5-5-5-|-5-6-5-----5-6-5-----|
|-x-x-x-x-4\3-3-3-|-3-4-3-4-3-3-4-3-4-3-|
|-x-x-x-x---------|-------4-3-------4-3-|

ENJOY!!!!
Tap to rate this tab
# A B C D E F G H I J K L M N O P Q R S T U V W X Y Z