Song name
# A B C D E F G H I J K L M N O P Q R S T U V W X Y Z

Disturbed - God Of The Mind tab

Band- Disturbed
Album- Return Of The Rock Vol. 2
Song- God Of The Mind
Tuning- Tune down 1/2 step:Drop D

Chorus/Main Riff
|-------------------------------------------------|
|-------------------------------------------------|
|-------------------------------------------------|
|-0-5-0-6-0-5-0-6-7-7-8-8-0-5-0-6-0-5-0-6-7-7-8-8-|
|-0-5-0-6-0-5-0-6-7-7-8-8-0-5-0-6-0-5-0-6-7-7-8-8-|
|-0-5-0-6-0-5-0-6-7-7-8-8-0-5-0-6-0-5-0-6-7-7-8-8-|

Verse
|-------------------------------------------|
|-------------------------------------------|
|-------------------------------------------|
|-------------------------------------------|
|-4-5-4-5-4-5-4-5-5-5-7-4-5-4-5-4-5-4-5-5-7-|
|-------------------------------------------|
P.M........................................

Pre-Chorus
|-------------------------------------------|
|-------------------------------------------|
|-------------------------------------------|
|-------------------------------------------|
|-4-5-4-5-4-5-4-5-5-5-7-4-5-4-5-4-5-4-5-5-7-|
|-------------------------------------------|

Riff 1
|------------------|
|------------------|
|------------------|
|-0--7--0--7--0--7-|...Pick Slide after this
|-0--7--0--7--0--7-|
|-0--7--0--7--0--7-|

Bridge
|-------------------------|
|-------------------------|
|-------------------------|
|-0-0-0-0-7-0-0-0-0-0-0-7-|
|-0-0-0-0-7-0-0-0-0-0-0-7-|
|-0-0-0-0-7-0-0-0-0-0-0-7-|
P.M......   ...........

Outro/Palm Mute Throughout
|-------------------------------------|
|-------------------------------------|
|-------------------------------------|
|-0-0-0-0-7-7-0-0-0-0-7-7-0-7-0-7-0-7-|
|-0-0-0-0-7-7-0-0-0-0-7-7-0-7-0-7-0-7-|
|-0-0-0-0-7-7-0-0-0-0-7-7-0-7-0-7-0-7-|

This song is super easy to play, so ENJOY!!!!!
Tap to rate this tab
# A B C D E F G H I J K L M N O P Q R S T U V W X Y Z