Song name
# A B C D E F G H I J K L M N O P Q R S T U V W X Y Z

Disturbed - Welcome Burden tab

Help us improve GuitareTab! Take a short survey!
Tabbed By: Dysfunction
Song: "A Welcome Burden"
Artist: Disturbed


Tuning: 1/2 Step Down, Drop D

CHORUS:
|------------------------------------------------------------------|
|------------------------------------------------------------------|
|------------------------------------------------------------------|
|----------------------------------------------------------1-3-1-3-|
|-3-4-3------3-4-3---3-4-3------4-6-4---3-4-3------3-4-3---1-3-1-3-|
|-------4-3--------4-------4-3--------6-------4-3--------4-1-3-1-3-|

FILL:
|---------|
|---------|
|---------|
|-1-3-1-3-|
|-1-3-1-3-|
|-1-3-1-3-|

FILL 2:
|---|
|---|
|-5-|
|-X-|
|-3-|
|---|

VERSE: (palm mute and release towards end of verse)
|--------------------|
|--------------------|
|--------------------|
|-10-13-10--10-13-10-|
|--------------------|
|--------------------|

BRIDGE:
|------------------|
|------------------|
|------------------|
|-3-6-3-5--3-6-3-5-|
|-3-6-3-5--3-6-3-5-|
|-3-6-3-5--3-6-3-5-|

INTERLUDE:
|---------------------------------------|
|---------------------------------------|
|---------------------------------10-13-|
|-11-10-10--10-11-10-10--10-11-10--X--X-|
|-11-10-10--10-11-10-10--10-11-10--8-11-|
|-11-10-10--10-11-10-10--10-11-10-------|

|-------------------------------------|
|-------------------------------------|
|-------------------------------------|
|-11-10-10--10-11-10-10--10-11--------|
|-11-10-10--10-11-10-10--10-11-X\-XXX-|
|-11-10-10--10-11-10-10--10-11-X\-XXX-|

INTERLUDE 2:
|-------------------------|
|-------------------------|
|-------------------------|
|-3-3-3-3-3-3-6-6-6-6-6-6-|
|-3-3-3-3-3-3-6-6-6-6-6-6-|
|-3-3-3-3-3-3-6-6-6-6-6-6-|

INTERLUDE 3:
|-----------------|
|-----------------|
|---------6-5-5-5-|
|---------X-X-X-X-|
|-X-X-X-X-4-3-3-3-|
|-X-X-X-X---------|

OUTRO:
|----------------------|
|----------------------|
|----------------------|
|----------------------|
|-3-4-3------3-4-3-----|
|-------4-3--------4-3-|
Related for Welcome Burden tab