Song name
# A B C D E F G H I J K L M N O P Q R S T U V W X Y Z

Disturbed - Caraztara Live tab

Help us improve GuitareTab! Take a short survey!
i got this tab when i seen them play live

they said it well be on there next album
disturbed live
caraztara

--------------------------------------|
--------------------------------------|
---5---2--------5-4------2------------|
-2-5-2-2-3-5555-5-4-3333-2------------|
-2-3-2-0-3-5555-3-2-3333-0------------|
-2---2---3-5555-----3333--------------|

-----------------------------------|
-----------------------------------|
----5-------------5-------4--------|
--3--3-2--2---2-3---3---2---3-2----|
---------5--3---------5------------|
-----------------------------------|

-------------------------------------|
-------------------------------------|
-------------------------------------|
----------7-----8--------------------|
-----7-8-----8-----8--7--------------|
--10-10-10-10-10-10-10-10-10---------|

-------------------------------------|
-------------------------------------|
-------------------------------------|
----------7-----8--------------------|
-----7-8-----8-----8--7--------------|
--8---8-8--8--8--8---8-8-8-----------|


--------------------------------------|
--------------------------------------|
---5---2--------5-4------2------------|
-2-5-2-2-3-5555-5-4-3333-2------------|
-2-3-2-0-3-5555-3-2-3333-0------------|
-2---2---3-5555-----3333--------------|
Related for Caraztara Live tab