Song name
# A B C D E F G H I J K L M N O P Q R S T U V W X Y Z

Disturbed - Guarded tab

   Intro x3

          PM----|       PM|               PM----|   PM|

|----------------------------------------------------------|
|----------------------------------------------------------|
|----------------------------------------------------------|
|----------------------------------------------------------|
|----------------------------------------------------------|
|-0-10-12-0-0-0-0-10-12-0-0-10-12-0-10-12-0-0-0-0-8-0-0-13-|
          - - - -       - -               - - - -   - -

          PM----|       PM|              PM------------------|

|-------------------------------------------------------------|
|-------------------------------------------------------------|
|-------------------------------------------------------------|
|-------------------------------------------------------------|
|-0-10-12-0-0-0-0-10-12-0-0-10-12-0-10-12-0-0-0-0-6-6-6-6-6-6-|
          - - - -       - -               - - - - - - - - - -

   Pre-Verse x2

|-------------------------------------|
|----3-----3-----3-----3--------------|
|------2-----2-----2-----2-----3-3-3--|
|------------------------------3-3-3--|
|------------------------------1-1-1--|
|--0-----3-----0-----3-----0----------|

|-------------------------------------|
|----3-----3-----3-----3--------------|
|------2-----2-----2-----2-----3-3-3--|
|------------------------------3-3-3--|
|------------------------------1-1-1--|
|--0-----3-----0-----3-----0----------|


   Verse x2

|---------------------------------------|
|----3-----3-----3-----3----------------|
|------2-----2-----2-----2-----3-3-3----|
|------------------------------3-3-3----|
|------------------------------1-1-1----|
|--0-----3-----0-----3-----0------------|
CLEAN-----------------------------------|

|---------------------------------------|
|----3-----3-----3-----3----------------|
|------2-----2-----2-----2-----3-3-3----|
|------------------------------3-3-3----|
|------------------------------1-1-1----|
|--0-----3-----0-----3-----0------------|
CLEAN-----------------------------------|


 Pre-Chorus x1

|-----------------------------------------------------------------------|
|-----------------------------------------------------------------------|
|-----------------------------------------------------------------------|
|-3-6-5--5-3-6-5--x-x-3-x-x-3-x-x-3-x-x-3--3-6-5--5-3-6-5--x-x-3-x-x-3--|
|-3-6-5--5-3-6-5--x-x-3-x-x-3-x-x-3-x-x-3--3-6-5--5-3-6-5--x-x-3-x-x-3--|
|-3-6-5--5-3-6-5--x-x-3-x-x-3-x-x-3-x-x-3--3-6-5--5-3-6-5--x-x-3-x-x-3--|


   Chorus x2

|------------------------------------------------------------|
|------8-7-------8-7-------------8-7-------8-7---------------|
|------------------------------------------------------------|
|--0---------1---------5-----0---------1---------3------<5>--|
|--0---------1---------3-----0---------1---------3--<5>------|
|--0---------1---------3-----0---------1---------3-----------|


   Verse x2
          PM----|      PM-|                PM----|  PM-|

|-----------------------------------------------------------|
|-----------------------------------------------------------|
|-----------------------------------------------------------|
|-----------------------------------------------------------|
|-----------------------------------------------------------|
|-0-10-12-0-0-0-0-10-12-0-0-10-12-0-10-12--0-0-0-0-8-0-0-13-|
          - - - -       - -                - - - -   - -

          PM----|       PM|              PM------------------|

|-------------------------------------------------------------|
|-------------------------------------------------------------|
|-------------------------------------------------------------|
|-------------------------------------------------------------|
|-0-10-12-0-0-0-0-10-12-0-0-10-12-0-10-12-0-0-0-0-6-6-6-6-6-6-|
          - - - -       - -               - - - - - - - - - -


 Pre-Verse x2

|-------------------------------------|
|----3-----3-----3-----3--------------|
|------2-----2-----2-----2-----3-3-3--|
|------------------------------3-3-3--|
|------------------------------1-1-1--|
|--0-----3-----0-----3-----0----------|

|---------------------------------|
|----3-----3-----3-----3----------|
|------2-----2-----2-----2-----3--|
|------------------------------3--|
|------------------------------1--|
|--0-----3-----0-----3-----0------|


   Verse x2

|---------------------------------------|
|----3-----3-----3-----3----------------|
|------2-----2-----2-----2-----3-3-3----|
|------------------------------3-3-3----|
|------------------------------1-1-1----|
|--0-----3-----0-----3-----0------------|
CLEAN-----------------------------------|

|---------------------------------------|
|----3-----3-----3-----3----------------|
|------2-----2-----2-----2-----3-3-3----|
|------------------------------3-3-3----|
|------------------------------1-1-1----|
|--0-----3-----0-----3-----0------------|
CLEAN-----------------------------------|


 Pre-Chorus x1

|-----------------------------------------------------------------------|
|-----------------------------------------------------------------------|
|-----------------------------------------------------------------------|
|-3-6-5--5-3-6-5--x-x-3-x-x-3-x-x-3-x-x-3--3-6-5--5-3-6-5--x-x-3-x-x-3--|
|-3-6-5--5-3-6-5--x-x-3-x-x-3-x-x-3-x-x-3--3-6-5--5-3-6-5--x-x-3-x-x-3--|
|-3-6-5--5-3-6-5--x-x-3-x-x-3-x-x-3-x-x-3--3-6-5--5-3-6-5--x-x-3-x-x-3--|


   Chorus x2

|------------------------------------------------------------|
|------8-7-------8-7-------------8-7-------8-7---------------|
|------------------------------------------------------------|
|--0---------1---------5-----0---------1---------3------<5>--|
|--0---------1---------3-----0---------1---------3--<5>------|
|--0---------1---------3-----0---------1---------3-----------|


|-------------|
|-------------|
|-------------|
|-0-----------|
|-0-----------|
|-0------15\--|


   Bridge x3

        PM------------------|              PM------------------|

||------------------------------------|-----------------------------------|
||------------------------------------|-----------------------------------|
||------------------------------------|-----------------------------------|
||-----------------------------3-3-2--|----------------------------5-5-2--|
||--0---0-0-0-0---0---0-0-0-0--1-1-0--|-0---0-0-0-0---0---0-0-0-0--3-3-0--|
||--0---0-0-0-0---0---0-0-0-0---------|-0---0-0-0-0---0---0-0-0-0---------|
        - - - -   -   - - - -               - - - -   -   - - - -

     PM------------------|

|------------------------------------|
|------------------------------------|
|------------------------------------|
|-----------------------------3-3-2--|
|-0----0-0-0-0---0---0-0-0-0--1-1-0--|
|-0----0-0-0-0---0---0-0-0-0---------|
       - - - -   -   - - - -

|----------------------------------------|
|----------------------------------------|
|----------------------------------------|
|-3-3-3-3-3-3-3-3--2-2-2-2---------------|
|-3-3-3-3-3-3-3-3--2-2-2-2--1h3-1h3-1h3--|
|-3-3-3-3-3-3-3-3--2-2-2-2---------------|


 Guitar Break x1

         PM----|     PM|             PM----------------|

|--------------------------------------------------------|
|--------------------------------------------------------|
|--------------------------------------------------------|
|--------------------------------------------------------|
|--------------------------------------------------------|
|-0--3-5-0-0-0-0-3-5-0-0-3-5--0--3-5-0-0-0-0-6-6-6-6-6-6-|
         - - - -     - -             - - - - - - - - - -

 Breakdown x1

         PM----|      PM|             PM----|     PM--------|
|----------------------------|------------------------------|
|----------------------------|------------------------------|
|----------------------------|------------------------------|
|----------------------------|------------------------------|
|----------------------------|------------------------------|
|-0--3-5-0-0-0-0-3-5-0-0-3-5-|-0--3-5-0-0-0-0-3-5-0-0-3-5---|
         - - - -     - -              - - - -     - -

         PM----|     PM|              PM----------------|

|----------------------------|----------------------------|
|----------------------------|----------------------------|
|----------------------------|----------------------------|
|----------------------------|----------------------------|
|----------------------------|----------------------------|
|-0--3-5-0-0-0-0-3-5-0-0-3-5-|-0--3-5-0-0-0-0-6-6-6-6-6-6-|
         - - - -     - -              - - - - - - - - - -

 Outro x1

|-----------------------------------|-----------------------------------|
|-----------------------------------|-----------------------------------|
|-----------------------------------|-----------------------------------|
|-0--------------------------3-3-2--|-0--------------------------3-3-2--|
|-0--------------------------1-1-0--|-0--------------------------1-1-0--|
|-0---0-0-0-0---0---0-0-0-0---------|-0---0-0-0-0---0---0-0-0-0---------|


|-----------------------------------|-----------------------------------|
|-----------------------------------|-----------------------------------|
|-----------------------------------|-----------------------------------|
|-0--------------------------3-3-2--|-0--------------------------3-3-2--|
|-0--------------------------1-1-0--|-0--------------------------1-1-1--|
|-0---0-0-0-0---0---0-0-0-0---------|-0---0-0-0-0---0---0-0-0-0---------|


This is pretty much how i have seen dan donegan play it live the 2 or 3 times ive seen 
sounds damn right to me so enjoy!!!  p.s- if you are certain i am wrong on something let 
know!!! i did the best i could!!!
Tap to rate this tab
# A B C D E F G H I J K L M N O P Q R S T U V W X Y Z