Song name
# A B C D E F G H I J K L M N O P Q R S T U V W X Y Z

Disturbed - Deify tab

Disturbed: Deify

Transcribed by: Andrew Zara (disturbedfreak0520@yahoo.com)

Date last modified: June 9, 2007

PLEASE DO NOT COPY THIS TAB TO ANOTHER SITE
WITHOUT AUTHORS' PERMISSION. THANK YOU.

Tuning: Drop C (C,G,C,F,A,D)

  S S S S S S S S S S S S S S S S    S S S S S S S S S S S S S S S S  
D||-----------------------------------|----------------------------------|
A||-----------------------------------|----------------------------------|
F||*----------------------------------|----------------------------------|
C||*--5-5---5-5---5-5---5-5-----------|----------------------------------|
G||---3-3---3-3---3-3---3-3---5-5-5-5-|--3-3---3-3---3-3---3-3---1-1-5-5-|
C||---------------------------5-5-5-5-|--3-3---3-3---3-3---3-3---1-1-5-5-|


  S S S S S S S S S S S S S S S S    S S S S S S S S S S S S S S S S    
----------------------------------|-----------------------------------||
----------------------------------|-----------------------------------||
----------------------------------|----------------------------------*||
----------------------------------|----------------------------------*||
--3-3---3-3---3-3---3-3---3-3-3-3-|--1-1---1-1---0-0---0-0---3-3-3-3--||
--3-3---3-3---3-3---3-3---3-3-3-3-|--1-1---1-1---0-0---0-0---3-3-3-3--||


   S  S  S  S  S  S S  S S  S  S  S  S  S S  S  
-----------------------------------------------|
-----------------------------------------------|
-----------------------------------------------|
-----------------------------------------------|
--10-10-10-10-11-10-8-10---10-10-10-11-10-8-10-|
--10-10-10-10-11-10-8-10---10-10-10-11-10-8-10-|


   S  S  S  S  S  S S  S S  S  S  S  S  S S  S  
-----------------------------------------------|
-----------------------------------------------|
-----------------------------------------------|
-----------------------------------------------|
--10-10-10-10-11-10-8-10---10-10-10-11-10-8-10-|
--10-10-10-10-11-10-8-10---10-10-10-11-10-8-10-|


    PM PM PM PM PM PM PM PM PM PM PM PM PM PM PM PM  
    S  S  S  S  S  S  S  S  S  S  S  S  S  S  S  S   
|---------------------------------------------------|
|---------------------------------------------------|
|*--------------------------------------------------|
|*--------------------------------------------------|
|---3--3--3--3--3--3--4--4--4--4--------------------|
|---------------------------------5--5--5--5--3--3--|


  PM PM PM PM PM PM PM PM PM PM PM PM PM PM PM PM  
  S  S  S  S  S  S  S  S  S  S  S  S  S  S  S  S   
--------------------------------------------------|
--------------------------------------------------|
--------------------------------------------------|
--------------------------------------------------|
--------------------------3--3--3--3--3--3--4--4--|
--3--3--8--8--8--8--6--6--------------------------|


  PM PM PM PM PM PM PM PM PM PM PM PM PM PM PM PM    
  S  S  S  S  S  S  S  S  S  S  S  S  S  S  S  S     
---------------------------------------------------||
---------------------------------------------------||
--------------------------------------------------*||
--------------------------------------------------*||
--4--4---------------------------------------------||
--------5--5--5--5--3--3--3--3--8--8--8--8--6--6---||


    S  S  S  S  S  S  S  S  S  S S S S S S S  
---------------------------------------------|
---------------------------------------------|
*--------------------------------------------|
*--------------------------------------------|
---10-10-10-10-10-10-11-11-11-11-5-5-5-5-3-3-|
---10-10-10-10-10-10-11-11-11-11-5-5-5-5-3-3-|


  S S S S S S S S  S  S  S  S  S  S  S  S  
------------------------------------------|
------------------------------------------|
------------------------------------------|
------------------------------------------|
--3-3-8-8-8-8-6-6-10-10-10-10-10-10-11-11-|
--3-3-8-8-8-8-6-6-10-10-10-10-10-10-11-11-|


   S  S S S S S S S S S S S S S S S      E  S S S S S S S S S S S S S S  
-------------------------------------||---------------------------------|
-------------------------------------||---------------------------------|
------------------------------------*||---------------------------------|
------------------------------------*||---------------------------------|
--11-11-5-5-5-5-3-3-3-3-8-8-8-8-6-6--||--6--L-6-L-L-8-L-L-8-L-L-6-L-5-L-|
--11-11-5-5-5-5-3-3-3-3-8-8-8-8-6-6--||--6--L-6-L-L-8-L-L-8-L-L-6-L-5-L-|


  S S S S S S E  S S S S S S S S    S S S S S S S S S S S S S S E   
---------------------------------|---------------------------------|
---------------------------------|---------------------------------|
---------------------------------|---------------------------------|
---------------------------------|---------------------------------|
--6-L-L-6-6-5-5--6-L-L-6-L-L-8-L-|--L-8-L-L-6-L-5-L-6-L-L-6-6-5-5--|
--6-L-L-6-6-5-5--6-L-L-6-L-L-8-L-|--L-8-L-L-6-L-5-L-6-L-L-6-6-5-5--|


  S S S S S S S S S S S S S S S S    S S S S S S E  S S S S S S S S  
----------------------------------|---------------------------------|
----------------------------------|---------------------------------|
----------------------------------|---------------------------------|
----------------------------------|---------------------------------|
--6-L-L-6-L-L-8-L-L-8-L-L-6-L-5-L-|--6-L-L-6-6-5-5--6-L-L-6-L-L-8-L-|
--6-L-L-6-L-L-8-L-L-8-L-L-6-L-5-L-|--6-L-L-6-6-5-5--6-L-L-6-L-L-8-L-|


  S S S S S S S S S S S S S S E     S S S S S S S S S S S S S S S S  
---------------------------------|----------------------------------|
---------------------------------|----------------------------------|
---------------------------------|----------------------------------|
---------------------------------|--5-5---5-5---5-5---5-5-----------|
--L-8-L-L-6-L-5-L-6-L-L-6-6-5-5--|--3-3---3-3---3-3---3-3---5-5-5-5-|
--L-8-L-L-6-L-5-L-6-L-L-6-6-5-5--|--------------------------5-5-5-5-|


  S S S S S S S S S S S S S S S S    S S S S S S S S S S S S S S S S  
----------------------------------|----------------------------------|
----------------------------------|----------------------------------|
----------------------------------|----------------------------------|
----------------------------------|----------------------------------|
--3-3---3-3---3-3---3-3---1-1-5-5-|--3-3---3-3---3-3---3-3---3-3-3-3-|
--3-3---3-3---3-3---3-3---1-1-5-5-|--3-3---3-3---3-3---3-3---3-3-3-3-|


  S S S S S S S S S S S S S S S S    S S S S S S S S S S S S S S S S  
----------------------------------|----------------------------------|
----------------------------------|----------------------------------|
----------------------------------|----------------------------------|
----------------------------------|--5-5---5-5---5-5---5-5-----------|
--1-1---1-1---0-0---0-0---3-3-3-3-|--3-3---3-3---3-3---3-3---5-5-5-5-|
--1-1---1-1---0-0---0-0---3-3-3-3-|--------------------------5-5-5-5-|


  S S S S S S S S S S S S S S S S    S S S S S S S S S S S S S S S S  
----------------------------------|----------------------------------|
----------------------------------|----------------------------------|
----------------------------------|----------------------------------|
----------------------------------|----------------------------------|
--3-3---3-3---3-3---3-3---1-1-5-5-|--3-3---3-3---3-3---3-3---3-3-3-3-|
--3-3---3-3---3-3---3-3---1-1-5-5-|--3-3---3-3---3-3---3-3---3-3-3-3-|


  S S S S S S S S S S S S S S S S  
----------------------------------|
----------------------------------|
----------------------------------|
----------------------------------|
--1-1---1-1---0-0---0-0---3-3-3-3-|
--1-1---1-1---0-0---0-0---3-3-3-3-|


   S  S  S  S  S  S S  S S  S  S  S  S  S S  S  
-----------------------------------------------|
-----------------------------------------------|
-----------------------------------------------|
-----------------------------------------------|
--10-10-10-10-11-10-8-10---10-10-10-11-10-8-10-|
--10-10-10-10-11-10-8-10---10-10-10-11-10-8-10-|


   S  S  S  S  S  S S  S S  S  S  S  S  S S  S  
-----------------------------------------------|
-----------------------------------------------|
-----------------------------------------------|
-----------------------------------------------|
--10-10-10-10-11-10-8-10---10-10-10-11-10-8-10-|
--10-10-10-10-11-10-8-10---10-10-10-11-10-8-10-|


    PM PM PM PM PM PM PM PM PM PM PM PM PM PM PM PM  
    S  S  S  S  S  S  S  S  S  S  S  S  S  S  S  S   
|---------------------------------------------------|
|---------------------------------------------------|
|*--------------------------------------------------|
|*--------------------------------------------------|
|---3--3--3--3--3--3--4--4--4--4--------------------|
|---------------------------------5--5--5--5--3--3--|


  PM PM PM PM PM PM PM PM PM PM PM PM PM PM PM PM  
  S  S  S  S  S  S  S  S  S  S  S  S  S  S  S  S   
--------------------------------------------------|
--------------------------------------------------|
--------------------------------------------------|
--------------------------------------------------|
--------------------------3--3--3--3--3--3--4--4--|
--3--3--8--8--8--8--6--6--------------------------|


  PM PM PM PM PM PM PM PM PM PM PM PM PM PM PM PM    
  S  S  S  S  S  S  S  S  S  S  S  S  S  S  S  S     
---------------------------------------------------||
---------------------------------------------------||
--------------------------------------------------*||
--------------------------------------------------*||
--4--4---------------------------------------------||
--------5--5--5--5--3--3--3--3--8--8--8--8--6--6---||


    S  S  S  S  S  S  S  S  S  S S S S S S S  
---------------------------------------------|
---------------------------------------------|
*--------------------------------------------|
*--------------------------------------------|
---10-10-10-10-10-10-11-11-11-11-5-5-5-5-3-3-|
---10-10-10-10-10-10-11-11-11-11-5-5-5-5-3-3-|


  S S S S S S S S  S  S  S  S  S  S  S  S  
------------------------------------------|
------------------------------------------|
------------------------------------------|
------------------------------------------|
--3-3-8-8-8-8-6-6-10-10-10-10-10-10-11-11-|
--3-3-8-8-8-8-6-6-10-10-10-10-10-10-11-11-|


   S  S S S S S S S S S S S S S S S      S S S S S S S S S S S S S S S S  
-------------------------------------||----------------------------------|
-------------------------------------||----------------------------------|
------------------------------------*||----------------------------------|
------------------------------------*||----------------------------------|
--11-11-5-5-5-5-3-3-3-3-8-8-8-8-6-6--||--6-L-L-6-L-L-8-L-L-8-L-L-6-L-5-L-|
--11-11-5-5-5-5-3-3-3-3-8-8-8-8-6-6--||--6-L-L-6-L-L-8-L-L-8-L-L-6-L-5-L-|


  S S S S S S E  S S S S S S S S    S S S S S S S S S S S S S S E   
---------------------------------|---------------------------------|
---------------------------------|---------------------------------|
---------------------------------|---------------------------------|
---------------------------------|---------------------------------|
--6-L-L-6-6-5-5--6-L-L-6-L-L-8-L-|--L-8-L-L-6-L-5-L-6-L-L-6-6-5-5--|
--6-L-L-6-6-5-5--6-L-L-6-L-L-8-L-|--L-8-L-L-6-L-5-L-6-L-L-6-6-5-5--|


  S S S S S S S S S S S S S S S S    S S S S S S E  S S S S S S S S  
----------------------------------|---------------------------------|
----------------------------------|---------------------------------|
----------------------------------|---------------------------------|
----------------------------------|---------------------------------|
--6-L-L-6-L-L-8-L-L-8-L-L-6-L-5-L-|--6-L-L-6-6-5-5--6-L-L-6-L-L-8-L-|
--6-L-L-6-L-L-8-L-L-8-L-L-6-L-5-L-|--6-L-L-6-6-5-5--6-L-L-6-L-L-8-L-|


  S S S S S S S S S S S S S S E     S S S S S S S S S S S S S S S S  
---------------------------------|----------------------------------|
---------------------------------|----------------------------------|
---------------------------------|----------------------------------|
---------------------------------|--5-5---5-5---5-5---5-5-----------|
--L-8-L-L-6-L-5-L-6-L-L-6-6-5-5--|--3-3---3-3---3-3---3-3---5-5-5-5-|
--L-8-L-L-6-L-5-L-6-L-L-6-6-5-5--|--------------------------5-5-5-5-|


  S S S S S S S S S S S S S S S S    S S S S S S S S S S S S S S S S  
----------------------------------|----------------------------------|
----------------------------------|----------------------------------|
----------------------------------|----------------------------------|
----------------------------------|----------------------------------|
--3-3---3-3---3-3---3-3---1-1-5-5-|--3-3---3-3---3-3---3-3---3-3-3-3-|
--3-3---3-3---3-3---3-3---1-1-5-5-|--3-3---3-3---3-3---3-3---3-3-3-3-|


  S S S S S S S S S S S S S S S S    S S S S S S S S S S S S S S S S  
----------------------------------|----------------------------------|
----------------------------------|----------------------------------|
----------------------------------|----------------------------------|
----------------------------------|--5-5---5-5---5-5---5-5-----------|
--1-1---1-1---0-0---0-0---3-3-3-3-|--3-3---3-3---3-3---3-3---5-5-5-5-|
--1-1---1-1---0-0---0-0---3-3-3-3-|--------------------------5-5-5-5-|


  S S S S S S S S S S S S S S S S    S S S S S S S S S S S S S S S S  
----------------------------------|----------------------------------|
----------------------------------|----------------------------------|
----------------------------------|----------------------------------|
----------------------------------|----------------------------------|
--3-3---3-3---3-3---3-3---1-1-5-5-|--3-3---3-3---3-3---3-3---3-3-3-3-|
--3-3---3-3---3-3---3-3---1-1-5-5-|--3-3---3-3---3-3---3-3---3-3-3-3-|


  S S S S S S S S S S S S S S S S  
----------------------------------|
----------------------------------|
----------------------------------|
----------------------------------|
--1-1---1-1---0-0---0-0---3-3-3-3-|
--1-1---1-1---0-0---0-0---3-3-3-3-|


   S  S  S  S  S  S  S  S  S  S  S  S  S  S  S  S  
--------------------------------------------------|
--------------------------------------------------|
--------------------------------------------------|
--------------------------------------------------|
--------------11-------13----------11-------11-10-|
--10-10-10-10----10-10----10-10-10----10-10-------|


   S  S  S  S  S  S  S  S  S  S  S  S  S  S   S S  
--------------------------------------------------|
--------------------------------------------------|
--------------------------------------------------|
--------------------------------------------------|
--------------11-------13----------11-------------|
--10-10-10-10----10-10----10-10-10----10-10s-11-L-|


   S  S  S  S  S  S  S  S  S  S  S  S  S  S  S  S  
--------------------------------------------------|
--------------------------------------------------|
--------------------------------------------------|
--------------------------------------------------|
--------------11-------13----------11-------11-10-|
--10-10-10-10----10-10----10-10-10----10-10-------|


   S  S  S  S  S  S  S  S  S  S  S  S  S  S  S S  
-------------------------------------------------|
-------------------------------------------------|
-------------------------------------------------|
-------------------------------------------------|
-----------16-------16-16----------13------------|
--13-13-13----13-13-------10-10-10----10-10-11-L-|


     S  S  S  S  S  S  S  S  S  S  S  S  S  S  S  S  
|---------------------------------------------------|
|---------------------------------------------------|
|*--------------------------------------------------|
|*--------------------------------------------------|
|---------------11-------13----------11-------11-10-|
|---10-10-10-10----10-10----10-10-10----10-10-------|


   S  S  S  S  S  S  S  S  S  S  S  S  S  S  S S  
-------------------------------------------------|
-------------------------------------------------|
-------------------------------------------------|
-------------------------------------------------|
--------------11-------13----------11------------|
--10-10-10-10----10-10----10-10-10----10-10-11-L-|


   S  S  S  S  S  S  S  S  S  S  S  S  S  S  S  S  
--------------------------------------------------|
--------------------------------------------------|
--------------------------------------------------|
--------------------------------------------------|
--------------11-------13----------11-------11-10-|
--10-10-10-10----10-10----10-10-10----10-10-------|


   S  S  S  S  S  S  S  S  S  S  S  S  S  S  S S  3x
--------------------------------------------------||
--------------------------------------------------||
-------------------------------------------------*||
-------------------------------------------------*||
-----------16-------16-16----------13-------------||
--13-13-13----13-13-------10-10-10----10-10-11-L--||


   S  S  S  S  S  S  S  S  S  S  S  S  S  S  S  S  
--------------------------------------------------|
--------------------------------------------------|
--------------------------------------------------|
--------------------------------------------------|
--------------11-------13----------11-------11-10-|
--10-10-10-10----10-10----10-10-10----10-10-------|


   S  S  S  S  S  S  S  S  S  S  S  S  S  S  S S  
-------------------------------------------------|
-------------------------------------------------|
-------------------------------------------------|
-------------------------------------------------|
--------------11-------13----------11------------|
--10-10-10-10----10-10----10-10-10----10-10-11-L-|


   S  S  S  S  S  S  S  S  S  S  S  S  S  S  S  S  
--------------------------------------------------|
--------------------------------------------------|
--------------------------------------------------|
--------------------------------------------------|
--------------11-------13----------11-------11-10-|
--10-10-10-10----10-10----10-10-10----10-10-------|


   S  S  S  S  S  S  S  S  S  S  S  S  S  S  S S  
-------------------------------------------------|
-------------------------------------------------|
-------------------------------------------------|
-------------------------------------------------|
-----------16-------16-16----------13------------|
--13-13-13----13-13-------10-10-10----10-10-11-L-|


  S S S S S S S S S S S S S S S S    S S S S S S S S S S S S S S S S  
----------------------------------|----------------------------------|
----------------------------------|----------------------------------|
----------------------------------|----------------------------------|
--5-5---5-5---5-5---5-5-----------|----------------------------------|
--3-3---3-3---3-3---3-3---5-5-5-5-|--3-3---3-3---3-3---3-3---1-1-5-5-|
--------------------------5-5-5-5-|--3-3---3-3---3-3---3-3---1-1-5-5-|


  S S S S S S S S S S S S S S S S    S S S S S S S S S S S S S S S S            
----------------------------------|----------------------------------|----|----|
----------------------------------|----------------------------------|----|----|
----------------------------------|----------------------------------|----|----|
----------------------------------|----------------------------------|----|----|
--3-3---3-3---3-3---3-3---3-3-3-3-|--1-1---1-1---0-0---0-0---3-3-3-3-|----|----|
--3-3---3-3---3-3---3-3---3-3-3-3-|--1-1---1-1---0-0---0-0---3-3-3-3-|----|----|


                           S S S S S S S S S S S S S S S S  
----|----|----|----|----|----------------------------------|
----|----|----|----|----|----------------------------------|
----|----|----|----|----|----------------------------------|
----|----|----|----|----|----------------------------------|
----|----|----|----|----|----------------------------------|
----|----|----|----|----|----------------------------------|


    S S S S S S S S S S S S S S S S    S S S S S S S S S S S S S S S S  
|-----------------------------------|----------------------------------|
|-----------------------------------|----------------------------------|
|*----------------------------------|----------------------------------|
|*--5-5---5-5---5-5---5-5-----------|----------------------------------|
|---3-3---3-3---3-3---3-3---5-5-5-5-|--3-3---3-3---3-3---3-3---1-1-5-5-|
|---------------------------5-5-5-5-|--3-3---3-3---3-3---3-3---1-1-5-5-|


  S S S S S S S S S S S S S S S S    S S S S S S S S S S S S S S S S    
----------------------------------|-----------------------------------||
----------------------------------|-----------------------------------||
----------------------------------|----------------------------------*||
----------------------------------|----------------------------------*||
--3-3---3-3---3-3---3-3---3-3-3-3-|--1-1---1-1---0-0---0-0---3-3-3-3--||
--3-3---3-3---3-3---3-3---3-3-3-3-|--1-1---1-1---0-0---0-0---3-3-3-3--||


  S   S  S  S  S  S S  S S  S  S  S  S  S S  S  
-----------------------------------------------|
-----------------------------------------------|
-----------------------------------------------|
-----------------------------------------------|
--8h-10-10-10-11-10-8-10---10-10-10-11-10-8-10-|
--8--10-10-10-11-10-8-10---10-10-10-11-10-8-10-|


  S   S  S  S  S  S S  S S  S  S  S  S  S S  S  
-----------------------------------------------|
-----------------------------------------------|
-----------------------------------------------|
-----------------------------------------------|
--8h-10-10-10-11-10-8-10---10-10-10-11-10-8-10-|
--8--10-10-10-11-10-8-10---10-10-10-11-10-8-10-|


  S   S  S  S  S  S S  S S  S  S  S  S  S S  S  
-----------------------------------------------|
-----------------------------------------------|
-----------------------------------------------|
-----------------------------------------------|
--8h-10-10-10-11-10-8-10---10-10-10-11-10-8-10-|
--8--10-10-10-11-10-8-10---10-10-10-11-10-8-10-|


  S   S  S  S  S  S S  S S  S  S  S  S  S S S                       
----------------------------------------------|----|----|----|----||
----------------------------------------------|----|----|----|----||
----------------------------------------------|----|----|----|----||
----------------------------------------------|----|----|----|----||
--8h-10-10-10-11-10-8-10---10-10-10-11-10-8---|----|----|----|----||
--8--10-10-10-11-10-8-10---10-10-10-11-10-8-L-|----|----|----|----||




Duration Legend
---------------
W - whole
H - half
Q - quarter
E - 8th
S - 16th
T - 32nd
X - 64th
. - note dotted
|-n-|  - n-tuplets


Tablature Legend
----------------
L - tied note
x - dead note
g - grace note
(n) - ghost note
> - accentuded note
NH - natural harmonic
AH - artificial harmonic
TH - tapped harmonic
SH - semi harmonic
PH - pitch harmonic
h - hammer on
p - pull off
b - bend
br - bendRelease
pb - preBend
pbr - preBendRelease
brb - bendReleaseBend
\n/ - tremolo bar dip
\n - tremolo bar dive
-/n - tremolo bar Release up
/n\ - tremolo bar inverted dip
/n - tremolo bar return
-\n - tremolo bar Release down
S - shift slide
s - legato slide
/ -  slide into from below or out of upwards
\ -  slide into from above or out of downwards
~ - vibrato
W - wide vibrato
tr - trill
TP - tremolo picking
T - tapping
S - slap
P - pop
< - fade in
^ - brush up
v - brush down
Tap to rate this tab
# A B C D E F G H I J K L M N O P Q R S T U V W X Y Z