Song name
# A B C D E F G H I J K L M N O P Q R S T U V W X Y Z

Disturbed - Just Stop tab

Disturbed: Just Stop

Transcribed by: Andrew Zara (disturbedfreak0520@yahoo.com)

Date last modified: June 11, 2007

PLEASE DO NOT COPY THIS TAB TO ANOTHER SITE
WITHOUT AUTHORS' PERMISSION. THANK YOU.

Tuning: Drop Db (Db,Ab,Db,Gb,Bb,Eb)


                          S S S S S  S S  S S S S S S  S S  S  
D#||--------|--------||---------------------------------------|
A#||--------|--------||---------------------------------------|
F#||*-------|-------*||*--------------------------------------|
C#||*-------|-------*||*--------------------------------------|
G#||--------|--------||----------------3h-5--------------5h-6-|
C#||--------|--------||---0-0---0-3h-5--------0---0-5h-7------|


  S S S S S  S S  S S  S  S S  S  S S  S  
-----------------------------------------|
-----------------------------------------|
-----------------------------------------|
-----------------------------------------|
---------------3s-5-6p-5p-0-9p-8p-0------|
--0-0---0-3h-5----------------------3h-5-|


  S S S S S  S S  S S S S S S  S S  S  
--------------------------------------|
--------------------------------------|
--------------------------------------|
--------------------------------------|
---------------3h-5--------------5h-6-|
--0-0---0-3h-5--------0---0-5h-7------|


  S S S S S  S S  S S  S S  S  S S  S  S    
------------------------------------------||
------------------------------------------||
-----------------------------------------*||
-----------------------------------------*||
---------------3s-5-6p-5------------------||
--0-0---0-3h-5-----------0h-3h-5-0h-3h-5--||


  PM PM   PM PM PM PM PM   PM   PM PM PM PM PM  
  S  S  S S  S  S  S  S  S S  S S  S  S  S  S   
-----------------------------------------------|
-----------------------------------------------|
-----------------------------------------------|
-----------------------------------------------|
-----------------------------------------------|
--0--0----0--0--0--0--0----0----0--0--0--0--0--|


  PM PM   PM PM PM PM PM                 
  S  S  S S  S  S  S  S  E  S E  S S  S  
----------------------------------------|
----------------------------------------|
----------------------------------------|
-------------------------3--x-3--x-3h-5-|
-------------------------3--x-3--x-3h-5-|
--0--0----0--0--0--0--0--3--x-3--x-3h-5-|


  PM PM   PM PM PM PM PM   PM   PM PM PM PM PM  
  S  S  S S  S  S  S  S  S S  S S  S  S  S  S   
-----------------------------------------------|
-----------------------------------------------|
-----------------------------------------------|
-----------------------------------------------|
-----------------------------------------------|
--0--0----0--0--0--0--0----0----0--0--0--0--0--|


  PM PM   PM PM PM PM PM                                                     
  S  S  S S  S  S  S  S  E  S E  S  S  S    S S S S S S S S S S S S S S S S  
-----------------------------------------|----------------------------------|
-----------------------------------------|----------------------------------|
-----------------------------------------|----------------------------------|
-------------------------3--x-3--3h-5p-3-|----------------------------------|
-------------------------3--x-3--3h-5p-3-|----------------------------------|
--0--0----0--0--0--0--0--3--x-3--3h-5p-3-|--0-0---0-0-0-0-0---0---0-0-0-0-0-|


  S S S S S S S S E  S E  S S  S    S S S S S S S S S S S S S S S S  
---------------------------------|----------------------------------|
---------------------------------|----------------------------------|
---------------------------------|----------------------------------|
------------------3--x-3--x-3h-5-|----------------------------------|
------------------3--x-3--x-3h-5-|----------------------------------|
--0-0---0-0-0-0-0-3--x-3--x-3h-5-|--0-0---0-0-0-0-0---0---0-0-0-0-0-|


  S S S S S S S S E.  E.  E      E.   S  S  S  E.   S  S  S  E   S  S  
-----------------------------|----------------------------------------|
-----------------------------|----------------------------------------|
-----------------------------|--10---10-10-10-10---10-10-10-10--10-10-|
------------------8---7---3--|---8----8--8--8--8----8--8--8--8---8--8-|
------------------8---7---3--|---8----8--8--8--8----8--8--8--8---8--8-|
--0-0---0-0-0-0-0-8---7---3--|---8----8--8--8--8----8--8--8--8---8--8-|


  E.  S S S E.  S S S E  S S     E.   S  S  S  E.   S  S  S  E   S  S  
-----------------------------|----------------------------------------|
-----------------------------|----------------------------------------|
--2---2-2-2-2---2-2-2-2--2-2-|--12---12-12-12-12---12-12-12-12--12-12-|
--0---0-0-0-0---0-0-0-0--0-0-|--10---10-10-10-10---10-10-10-10--10-10-|
--0---0-0-0-0---0-0-0-0--0-0-|--10---10-10-10-10---10-10-10-10--10-10-|
--0---0-0-0-0---0-0-0-0--0-0-|--10---10-10-10-10---10-10-10-10--10-10-|


   E.   S  S  S  E.   S  S  S  E   S  S  
----------------------------------------|
----------------------------------------|
--12---12-12-12-12---12-12-12-12--12-12-|
--10---10-10-10-10---10-10-10-10--10-10-|
--10---10-10-10-10---10-10-10-10--10-10-|
--10---10-10-10-10---10-10-10-10--10-10-|


   E.   S  S  S  E.   S  S  S  E   S  S    E.  S S S E.  S S S E  S S  
----------------------------------------|-----------------------------|
----------------------------------------|-----------------------------|
--10---10-10-10-10---10-10-10-10--10-10-|--2---2-2-2-2---2-2-2-2--2-2-|
---8----8--8--8--8----8--8--8--8---8--8-|--0---0-0-0-0---0-0-0-0--0-0-|
---8----8--8--8--8----8--8--8--8---8--8-|--0---0-0-0-0---0-0-0-0--0-0-|
---8----8--8--8--8----8--8--8--8---8--8-|--0---0-0-0-0---0-0-0-0--0-0-|


   E.   S  S  S  E.   S  S  S  E   S  S  
----------------------------------------|
----------------------------------------|
--12---12-12-12-12---12-12-12-12--12-12-|
--10---10-10-10-10---10-10-10-10--10-10-|
--10---10-10-10-10---10-10-10-10--10-10-|
--10---10-10-10-10---10-10-10-10--10-10-|


   E.   S  S  S  E.   S  S  S  E   S  S    S S S S S  S S  S S S S S S  S S  S  
----------------------------------------|--------------------------------------|
----------------------------------------|--------------------------------------|
--12---12-12-12-12---12-12-12-12--12-12-|--------------------------------------|
--10---10-10-10-10---10-10-10-10--10-10-|--------------------------------------|
--10---10-10-10-10---10-10-10-10--10-10-|---------------3h-5--------------5h-6-|
--10---10-10-10-10---10-10-10-10--10-10-|--0-0---0-3h-5--------0---0-5h-7------|


  S S S S S  S S  S S  S  S S  S  S S  S  
-----------------------------------------|
-----------------------------------------|
-----------------------------------------|
-----------------------------------------|
---------------3s-5-6p-5p-0-9p-8p-0------|
--0-0---0-3h-5----------------------3h-5-|


  S S S S S  S S  S S S S S S  S S  S  
--------------------------------------|
--------------------------------------|
--------------------------------------|
--------------------------------------|
---------------3h-5--------------5h-6-|
--0-0---0-3h-5--------0---0-5h-7------|


  S S S S S  S S  S S  S S  S  S S  S  S  
-----------------------------------------|
-----------------------------------------|
-----------------------------------------|
-----------------------------------------|
---------------3s-5-6p-5-----------------|
--0-0---0-3h-5-----------0h-3h-5-0h-3h-5-|


  PM PM   PM PM PM PM PM   PM   PM PM PM PM PM  
  S  S  S S  S  S  S  S  S S  S S  S  S  S  S   
-----------------------------------------------|
-----------------------------------------------|
-----------------------------------------------|
-----------------------------------------------|
-----------------------------------------------|
--0--0----0--0--0--0--0----0----0--0--0--0--0--|


  PM PM   PM PM PM PM PM   PM   PM PM PM PM PM  
  S  S  S S  S  S  S  S  S S  S S  S  S  S  S   
-----------------------------------------------|
-----------------------------------------------|
-----------------------------------------------|
-----------------------------------------------|
-----------------------------------------------|
--0--0----0--0--0--0--0----0----0--0--0--0--0--|


  PM PM   PM PM PM PM PM                 
  S  S  S S  S  S  S  S  E  S E  S S  S  
----------------------------------------|
----------------------------------------|
----------------------------------------|
-------------------------3--x-3--x-3h-5-|
-------------------------3--x-3--x-3h-5-|
--0--0----0--0--0--0--0--3--x-3--x-3h-5-|


  PM PM   PM PM PM PM PM   PM   PM PM PM PM PM  
  S  S  S S  S  S  S  S  S S  S S  S  S  S  S   
-----------------------------------------------|
-----------------------------------------------|
-----------------------------------------------|
-----------------------------------------------|
-----------------------------------------------|
--0--0----0--0--0--0--0----0----0--0--0--0--0--|


  PM PM   PM PM PM PM PM                                                     
  S  S  S S  S  S  S  S  E  S E  S  S  S    S S S S S S S S S S S S S S S S  
-----------------------------------------|----------------------------------|
-----------------------------------------|----------------------------------|
-----------------------------------------|----------------------------------|
-------------------------3--x-3--3h-5p-3-|----------------------------------|
-------------------------3--x-3--3h-5p-3-|----------------------------------|
--0--0----0--0--0--0--0--3--x-3--3h-5p-3-|--0-0---0-0-0-0-0---0---0-0-0-0-0-|


  S S S S S S S S E  S E  S S  S    S S S S S S S S S S S S S S S S  
---------------------------------|----------------------------------|
---------------------------------|----------------------------------|
---------------------------------|----------------------------------|
------------------3--x-3--x-3h-5-|----------------------------------|
------------------3--x-3--x-3h-5-|----------------------------------|
--0-0---0-0-0-0-0-3--x-3--x-3h-5-|--0-0---0-0-0-0-0---0---0-0-0-0-0-|


  S S S S S S S S E.  E.  E      E.   S  S  S  E.   S  S  S  E   S  S  
-----------------------------|----------------------------------------|
-----------------------------|----------------------------------------|
-----------------------------|--10---10-10-10-10---10-10-10-10--10-10-|
------------------8---7---3--|---8----8--8--8--8----8--8--8--8---8--8-|
------------------8---7---3--|---8----8--8--8--8----8--8--8--8---8--8-|
--0-0---0-0-0-0-0-8---7---3--|---8----8--8--8--8----8--8--8--8---8--8-|


  E.  S S S E.  S S S E  S S     E.   S  S  S  E.   S  S  S  E   S  S  
-----------------------------|----------------------------------------|
-----------------------------|----------------------------------------|
--2---2-2-2-2---2-2-2-2--2-2-|--12---12-12-12-12---12-12-12-12--12-12-|
--0---0-0-0-0---0-0-0-0--0-0-|--10---10-10-10-10---10-10-10-10--10-10-|
--0---0-0-0-0---0-0-0-0--0-0-|--10---10-10-10-10---10-10-10-10--10-10-|
--0---0-0-0-0---0-0-0-0--0-0-|--10---10-10-10-10---10-10-10-10--10-10-|


   E.   S  S  S  E.   S  S  S  E   S  S  
----------------------------------------|
----------------------------------------|
--12---12-12-12-12---12-12-12-12--12-12-|
--10---10-10-10-10---10-10-10-10--10-10-|
--10---10-10-10-10---10-10-10-10--10-10-|
--10---10-10-10-10---10-10-10-10--10-10-|


   E.   S  S  S  E.   S  S  S  E   S  S    E.  S S S E.  S S S E  S S  
----------------------------------------|-----------------------------|
----------------------------------------|-----------------------------|
--10---10-10-10-10---10-10-10-10--10-10-|--2---2-2-2-2---2-2-2-2--2-2-|
---8----8--8--8--8----8--8--8--8---8--8-|--0---0-0-0-0---0-0-0-0--0-0-|
---8----8--8--8--8----8--8--8--8---8--8-|--0---0-0-0-0---0-0-0-0--0-0-|
---8----8--8--8--8----8--8--8--8---8--8-|--0---0-0-0-0---0-0-0-0--0-0-|


   E.   S  S  S  E.   S  S  S  E   S  S  
----------------------------------------|
----------------------------------------|
--12---12-12-12-12---12-12-12-12--12-12-|
--10---10-10-10-10---10-10-10-10--10-10-|
--10---10-10-10-10---10-10-10-10--10-10-|
--10---10-10-10-10---10-10-10-10--10-10-|


   E.   S  S  S  E.   S  S  S  E   S  S  
----------------------------------------|
----------------------------------------|
--12---12-12-12-12---12-12-12-12--12-12-|
--10---10-10-10-10---10-10-10-10--10-10-|
--10---10-10-10-10---10-10-10-10--10-10-|
--10---10-10-10-10---10-10-10-10--10-10-|


   E.   S  S  S  E.   S  S  S  E   S  S    E.  S S S E.  S S S E  S S  
----------------------------------------|-----------------------------|
----------------------------------------|-----------------------------|
--10---10-10-10-10---10-10-10-10--10-10-|--2---2-2-2-2---2-2-2-2--2-2-|
---8----8--8--8--8----8--8--8--8---8--8-|--0---0-0-0-0---0-0-0-0--0-0-|
---8----8--8--8--8----8--8--8--8---8--8-|--0---0-0-0-0---0-0-0-0--0-0-|
---8----8--8--8--8----8--8--8--8---8--8-|--0---0-0-0-0---0-0-0-0--0-0-|


   E.   S  S  S  E.   S  S  S  E   S  S  
----------------------------------------|
----------------------------------------|
--12---12-12-12-12---12-12-12-12--12-12-|
--10---10-10-10-10---10-10-10-10--10-10-|
--10---10-10-10-10---10-10-10-10--10-10-|
--10---10-10-10-10---10-10-10-10--10-10-|


   E.   S  S  S  E.   S  S  S  E   S  S  
----------------------------------------|
----------------------------------------|
--12---12-12-12-12---12-12-12-12--12-12-|
--10---10-10-10-10---10-10-10-10--10-10-|
--10---10-10-10-10---10-10-10-10--10-10-|
--10---10-10-10-10---10-10-10-10--10-10-|


   E.   S  S  S  E.   S  S  S  E   S  S    E.  S S S E.  S S S E  S S  
----------------------------------------|-----------------------------|
----------------------------------------|-----------------------------|
--10---10-10-10-10---10-10-10-10--10-10-|--9---9-9-9-9---9-9-9-9--9-9-|
---8----8--8--8--8----8--8--8--8---8--8-|--7---7-7-7-7---7-7-7-7--7-7-|
---8----8--8--8--8----8--8--8--8---8--8-|--7---7-7-7-7---7-7-7-7--7-7-|
---8----8--8--8--8----8--8--8--8---8--8-|--7---7-7-7-7---7-7-7-7--7-7-|


  E.  S S S E.  S S S E  S S    E.  S S S E.  S S S E  S S  
-----------------------------|-----------------------------|
-----------------------------|-----------------------------|
--7---7-7-7-7---7-7-7-7--7-7-|--7---7-7-7-7---7-7-7-7--7-7-|
--5---5-5-5-5---5-5-5-5--5-5-|--5---5-5-5-5---5-5-5-5--5-5-|
--5---5-5-5-5---5-5-5-5--5-5-|--5---5-5-5-5---5-5-5-5--5-5-|
--5---5-5-5-5---5-5-5-5--5-5-|--5---5-5-5-5---5-5-5-5--5-5-|


  E.  E.  E.  E.  E  E     E  S E  E  E  S S S S S S S  
------------------------|------------------------------|
------------------------|------------------------------|
------------------------|------------------------------|
--0---1---0---3---0--6--|--0--1-0--6--0--3-x-x-5-x-3-5-|
--0---1---0---3---0--6--|--0--1-0--6--0--3-x-x-5-x-3-5-|
--0---1---0---3---0--6--|--0--1-0--6--0--3-x-x-5-x-3-5-|


  E.  E.  E.  E.  E  E     E  S E  E  E  S S S S S S S  
------------------------|------------------------------|
------------------------|------------------------------|
------------------------|------------------------------|
--0---1---0---3---0--6--|--0--1-0--6--0--3-x-x-5-x-x-x-|
--0---1---0---3---0--6--|--0--1-0--6--0--3-x-x-5-x-x-x-|
--0---1---0---3---0--6--|--0--1-0--6--0--3-x-x-5-x-x-x-|


  E.  E.  E.  E.  E  E     E  S E  E  E  S S S S S S S  
------------------------|------------------------------|
------------------------|------------------------------|
------------------------|------------------------------|
--0---1---0---3---0--6--|--0--1-0--6--0--3-x-x-5-x-3-5-|
--0---1---0---3---0--6--|--0--1-0--6--0--3-x-x-5-x-3-5-|
--0---1---0---3---0--6--|--0--1-0--6--0--3-x-x-5-x-3-5-|


  E.  E.  E.  E.  E  E     E  S E  E  E  S S S S S S S  
------------------------|------------------------------|
------------------------|------------------------------|
------------------------|------------------------------|
--0---1---0---3---0--6--|--0--1-0--6--0--3-x-x-5-x-x-x-|
--0---1---0---3---0--6--|--0--1-0--6--0--3-x-x-5-x-x-x-|
--0---1---0---3---0--6--|--0--1-0--6--0--3-x-x-5-x-x-x-|


  E.  E.  E.  E.  E  E     E  S E  E  E  S S S S S S S  
------------------------|------------------------------|
------------------------|------------------------------|
------------------------|------------------------------|
--0---1---0---3---0--6--|--0--1-0--6--0--3-x-x-5-x-3-5-|
--0---1---0---3---0--6--|--0--1-0--6--0--3-x-x-5-x-3-5-|
--0---1---0---3---0--6--|--0--1-0--6--0--3-x-x-5-x-3-5-|


  E.  E.  E.  E.  E  E     E  S E  E  E  S S S S S S S     W                 
------------------------|------------------------------|--------------------|
------------------------|------------------------------|--------------------|
------------------------|------------------------------|--10----------------|
--0---1---0---3---0--6--|--0--1-0--6--0--3-x-x-5-x-x-x-|---8----------------|
--0---1---0---3---0--6--|--0--1-0--6--0--3-x-x-5-x-x-x-|---8----------------|
--0---1---0---3---0--6--|--0--1-0--6--0--3-x-x-5-x-x-x-|---8----------------|


  W                    W                    W                 
-------------------|--------------------|--------------------|
-------------------|--------------------|--------------------|
--2----------------|--12----------------|--12----------------|
--0----------------|--10----------------|--10----------------|
--0----------------|--10----------------|--10----------------|
--0----------------|--10----------------|--10----------------|


   E.   S  S  S  E.   S  S  S  E   S  S    E.  S S S E.  S S S E  S S  
----------------------------------------|-----------------------------|
----------------------------------------|-----------------------------|
--10---10-10-10-10---10-10-10-10--10-10-|--2---2-2-2-2---2-2-2-2--2-2-|
---8----8--8--8--8----8--8--8--8---8--8-|--0---0-0-0-0---0-0-0-0--0-0-|
---8----8--8--8--8----8--8--8--8---8--8-|--0---0-0-0-0---0-0-0-0--0-0-|
---8----8--8--8--8----8--8--8--8---8--8-|--0---0-0-0-0---0-0-0-0--0-0-|


   E.   S  S  S  E.   S  S  S  E   S  S     E.   S  S  S  E.   S  S  S  S E.   
----------------------------------------|-------------------------------------|
----------------------------------------|-------------------------------------|
--12---12-12-12-12---12-12-12-12--12-12-|--12---12-12-12-12---12-12-12-12-----|
--10---10-10-10-10---10-10-10-10--10-10-|--10---10-10-10-10---10-10-10-10-----|
--10---10-10-10-10---10-10-10-10--10-10-|--10---10-10-10-10---10-10-10-10-----|
--10---10-10-10-10---10-10-10-10--10-10-|--10---10-10-10-10---10-10-10-10-----|


   E.   S  S  S  E.   S  S  S  E   S  S    E.  S S S E.  S S S E  S S  
----------------------------------------|-----------------------------|
----------------------------------------|-----------------------------|
--10---10-10-10-10---10-10-10-10--10-10-|--2---2-2-2-2---2-2-2-2--2-2-|
---8----8--8--8--8----8--8--8--8---8--8-|--0---0-0-0-0---0-0-0-0--0-0-|
---8----8--8--8--8----8--8--8--8---8--8-|--0---0-0-0-0---0-0-0-0--0-0-|
---8----8--8--8--8----8--8--8--8---8--8-|--0---0-0-0-0---0-0-0-0--0-0-|


   E.   S  S  S  E.   S  S  S  E   S  S  
----------------------------------------|
----------------------------------------|
--12---12-12-12-12---12-12-12-12--12-12-|
--10---10-10-10-10---10-10-10-10--10-10-|
--10---10-10-10-10---10-10-10-10--10-10-|
--10---10-10-10-10---10-10-10-10--10-10-|


   E.   S  S  S  E.   S  S  S  E   S  S  
----------------------------------------|
----------------------------------------|
--12---12-12-12-12---12-12-12-12--12-12-|
--10---10-10-10-10---10-10-10-10--10-10-|
--10---10-10-10-10---10-10-10-10--10-10-|
--10---10-10-10-10---10-10-10-10--10-10-|


   E.   S  S  S  E.   S  S  S  E   S  S    E.  S S S E.  S S S E  S S  
----------------------------------------|-----------------------------|
----------------------------------------|-----------------------------|
--10---10-10-10-10---10-10-10-10--10-10-|--9---9-9-9-9---9-9-9-9--9-9-|
---8----8--8--8--8----8--8--8--8---8--8-|--7---7-7-7-7---7-7-7-7--7-7-|
---8----8--8--8--8----8--8--8--8---8--8-|--7---7-7-7-7---7-7-7-7--7-7-|
---8----8--8--8--8----8--8--8--8---8--8-|--7---7-7-7-7---7-7-7-7--7-7-|


  E.  S S S E.  S S S E  S S    E.  E.  E.  E.  Q     
-----------------------------|-----------------------|
-----------------------------|-----------------------|
--7---7-7-7-7---7-7-7-7--7-7-|--7---7---7---7---7----|
--5---5-5-5-5---5-5-5-5--5-5-|--5---5---5---5---5----|
--5---5-5-5-5---5-5-5-5--5-5-|--5---5---5---5---5----|
--5---5-5-5-5---5-5-5-5--5-5-|--5---5---5---5---5----|


  S S S S S  S S  S S S S S S  S S  S  
--------------------------------------|
--------------------------------------|
--------------------------------------|
--------------------------------------|
---------------3h-5--------------5h-6-|
--0-0---0-3h-5--------0---0-5h-7------|


  S S S S S  S S  S S  S  S S  S  S S  S  
-----------------------------------------|
-----------------------------------------|
-----------------------------------------|
-----------------------------------------|
---------------3s-5-6p-5p-0-9p-8p-0------|
--0-0---0-3h-5----------------------3h-5-|


  S S S S S  S S  S S S S S S  S S  S  
--------------------------------------|
--------------------------------------|
--------------------------------------|
--------------------------------------|
---------------3h-5--------------5h-6-|
--0-0---0-3h-5--------0---0-5h-7------|


  S S S S S  S S  S S  S S  S  S S  S  S  
-----------------------------------------|
-----------------------------------------|
-----------------------------------------|
-----------------------------------------|
---------------3s-5-6p-5-----------------|
--0-0---0-3h-5-----------0h-3h-5-0h-3h-5-|


  S S S S S  S S  S S S S S S  S S  S  
--------------------------------------|
--------------------------------------|
--------------------------------------|
--------------------------------------|
---------------3h-5--------------5h-6-|
--0-0---0-3h-5--------0---0-5h-7------|


  S S S S S  S S  S S  S  S S  S  S S  S  
-----------------------------------------|
-----------------------------------------|
-----------------------------------------|
-----------------------------------------|
---------------3s-5-6p-5p-0-9p-8p-0------|
--0-0---0-3h-5----------------------3h-5-|


  S S S S S  S S  S S S S S S  S S  S  
--------------------------------------|
--------------------------------------|
--------------------------------------|
--------------------------------------|
---------------3h-5--------------5h-6-|
--0-0---0-3h-5--------0---0-5h-7------|


  S S S S S  S S  S S  S S  S  S S  S  S  
-----------------------------------------|
-----------------------------------------|
-----------------------------------------|
-----------------------------------------|
---------------3s-5-6p-5-----------------|
--0-0---0-3h-5-----------0h-3h-5-0h-3h-5-|


  S  S S  S  S S  S  S S  S S  S  S S  S  S    E  H.           E    
--------------------------------------------|---------------------||
--------------------------------------------|---------------------||
--------------------------------------------|---------------------||
--------------------------------------------|--0------------------||
-----------------------6p-5-----------------|--0------------------||
--6p-5-0h-3h-5-0h-3h-5------0h-3h-5-0h-3h-5-|--0------------------||




Duration Legend
---------------
W - whole
H - half
Q - quarter
E - 8th
S - 16th
T - 32nd
X - 64th
. - note dotted
|-n-|  - n-tuplets


Tablature Legend
----------------
L - tied note
x - dead note
g - grace note
(n) - ghost note
> - accentuded note
NH - natural harmonic
AH - artificial harmonic
TH - tapped harmonic
SH - semi harmonic
PH - pitch harmonic
h - hammer on
p - pull off
b - bend
br - bendRelease
pb - preBend
pbr - preBendRelease
brb - bendReleaseBend
\n/ - tremolo bar dip
\n - tremolo bar dive
-/n - tremolo bar Release up
/n\ - tremolo bar inverted dip
/n - tremolo bar return
-\n - tremolo bar Release down
S - shift slide
s - legato slide
/ -  slide into from below or out of upwards
\ -  slide into from above or out of downwards
~ - vibrato
W - wide vibrato
tr - trill
TP - tremolo picking
T - tapping
S - slap
P - pop
< - fade in
^ - brush up
v - brush down
Tap to rate this tab
 
# A B C D E F G H I J K L M N O P Q R S T U V W X Y Z