Song name
# A B C D E F G H I J K L M N O P Q R S T U V W X Y Z

Disturbed - Sons Of Plunder tab

Sons Of Plunder
----------------

song-  Sons Of Plunder
band-  Disturbed
album- Ten Thousand Fists

Drop Db (Db Ab Db Gb) or (C# G# C# F#)


Intro

|--------------------------------|--------------------------------|
|--------------------------------|--------------------------------|
|--------------------------------|--------------------------------|
|3p0-0-5p0-0-3p0-0-3p0-0-5p0-3h5-|3p0-0-5p0-0-3p0-0-3p0-0-6p5-3h5-|

|--------------------------------|--------------------------------|
|--------------------------------|--------------------------------|
|--------------------------------|--------------------------------|
|3p0-0-5p0-0-3p0-0-3p0-0-5p0-3h5-|3p0-0-5p0-0-3p0-0-3p0-0-5p0-0h1-|


Verse 1

|--------------------------------|--------------------------------|
|--------------------------------|--------------------------------|
|--------------------------------|--------------------------------|
|3p0-0-5p0-0-3p0-0-3p0-0-5p0-3h5-|3p0-0-5p0-0-3p0-0-3p0-0-6p5-3h5-|

|--------------------------------|--------------------------------|
|--------------------------------|--------------------------------|
|--------------------------------|--------------------------------|
|3p0-0-5p0-0-3p0-0-3p0-0-5p0-3h5-|3p0-0-5p0-0-3p0-0-3p0-0-5p0-0h1-|

|--------------------------------|--------------------------------|
|--------------------------------|--------------------------------|
|--------------------------------|--------------------------------|
|3p0-0-5p0-0-3p0-0-3p0-0-5p0-3h5-|3p0-0-5p0-0-3p0-0-3p0-0-6p5-3h5-|

|--------------------------------|--------------------------------|
|--------------------------------|--------------------------------|
|--------------------------------|--------------------------------|
|3p0-0-5p0-0-3p0-0-3p0-0-5p0-3h5-|3p0-0-5p0-0-3p0-0-3p0-0-5p0-0h1-|



Pre-Chorus 1

|----------------|----------------|-------------------|----------------|
|----------------|----------------|-------------------|----------------|
|----------------|----------------|-------------------|----------------|
|0--6--0--6--3-5-|0--6--0--6--3-5-|0-0-0-6--0--6--3-5-|0--6--0--6--3-5-|


Chorus 1

|----------------|----------------|
|----------------|----------------|
|5-5-5-5-5-5-5-5-|0-0-0-0-0-0-0-0-|
|----------------|----------------|

|----------------|----------------|
|----------------|----------------|
|1-1-1-1-1-1-1-1-|3-3-3-3-3-3-3-3-|
|----------------|----------------|

|----------------|----------------|
|----------------|----------------|
|5-5-5-5-5-5-5-5-|0-0-0-0-0-0-0-0-|
|----------------|----------------|

|----------------|----------------------------|
|----------------|----------------------------|
|----------------|----------------------------|
|3---3---3-------|3/5-5-5-5--3/5-5-5-5--3--5--|


Interlude

|------------------|
|------------------|
|------------------|
|0-----------------|


Verse 2

|-------------------|---------------|
|-------------------|---------------|
|-------------------|---------------|
|0--0--0--0--0--0-0-|0--0--0--0--0--|

|-------------------|---------------|
|-------------------|---------------|
|-------------------|---------------|
|0--0--0--0--0--0-0-|0--0--0--0--0--|

|--------------------------------|--------------------------------|
|--------------------------------|--------------------------------|
|--------------------------------|--------------------------------|
|3p0-0-5p0-0-3p0-0-3p0-0-5p0-3h5-|3p0-0-5p0-0-3p0-0-3p0-0-6p5-3h5-|

|--------------------------------|--------------------------------|
|--------------------------------|--------------------------------|
|--------------------------------|--------------------------------|
|3p0-0-5p0-0-3p0-0-3p0-0-5p0-3h5-|3p0-0-5p0-0-3p0-0-3p0-0-5p0-0h1-|


Pre-Chorus 2

|----------------|----------------|-------------------|----------------|
|----------------|----------------|-------------------|----------------|
|----------------|----------------|-------------------|----------------|
|0--6--0--6--3-5-|0--6--0--6--3-5-|0-0-0-6--0--6--3-5-|0--6--0--6--3-5-|


Chorus 2

|----------------|----------------|
|----------------|----------------|
|5-5-5-5-5-5-5-5-|0-0-0-0-0-0-0-0-|
|----------------|----------------|

|----------------|----------------|
|----------------|----------------|
|1-1-1-1-1-1-1-1-|3-3-3-3-3-3-3-3-|
|----------------|----------------|

|----------------|----------------|
|----------------|----------------|
|5-5-5-5-5-5-5-5-|0-0-0-0-0-0-0-0-|
|----------------|----------------|

|----------------|----------------------------|
|----------------|----------------------------|
|----------------|----------------------------|
|3---3---3-------|3/5-5-5-5--3/5-5-5-5--3--5--|

Bridge

|---------------|--------------|---------------|---------------|
|3--2--2--0--2--|3--2--2--0----|3--2--2--0--2--|3--2--2--0--5--|
|---------------|-----------3--|---------------|---------------|
|---------------|--------------|---------------|---------------|

|---------------|--------------|---------------|---------------|
|3--2--2--0--2--|3--2--2--0----|3--2--2--0--2--|3--2--2--0--5--|
|---------------|-----------3--|---------------|---------------|
|---------------|--------------|---------------|---------------|

|---------------|--------------|---------------|---------------|
|3--2--2--0--2--|3--2--2--0----|3--2--2--0--2--|3--2--2--0--5--|
|---------------|-----------3--|---------------|---------------|
|---------------|--------------|---------------|---------------|

|---------------|--------------|---------------|---------------|
|3--2--2--0--2--|3--2--2--0----|3--2--2--0--2--|3--2--2--0--5--|
|---------------|-----------3--|---------------|---------------|
|---------------|--------------|---------------|---------------|

|---------------------------|---------------------------|
|---------------------------|-----------------5p4-------|
|--3h5--5h6--3h5--5h6--1h3--|--3h5--5h6--3h5-------6p5--|
|0--------------------------|0--------------------------|

|---------------------------|------------------|
|---------------------------|------------------|
|--3h5--5h6--3h5--5h6--1h3--|1--1--1/6--6--6---|
|0--------------------------|------------------|

|---------------------------|---------------------------|
|---------------------------|-----------------5p4-------|
|--3h5--5h6--3h5--5h6--1h3--|--3h5--5h6--3h5-------6p5--|
|0--------------------------|0--------------------------|

|---------------------------|------------------|
|---------------------------|------------------|
|--3h5--5h6--3h5--5h6--1h3--|1--1--1/6--6--6---|
|0--------------------------|------------------|


Chorus 3

|----------------|----------------|
|----------------|----------------|
|----------------|0-0-0-0-0-0-0-0-|
|----------------|----------------|

|----------------|----------------|
|----------------|----------------|
|1-1-1-1-1-1-1-1-|3-3-3-3-3-3-3-3-|
|----------------|----------------|

|----------------|----------------|
|----------------|----------------|
|5-5-5-5-5-5-5-5-|0-0-0-0-0-0-0-0-|
|----------------|----------------|

|----------------|-----------------------------------|
|----------------|-----------------------------------|
|----------------|---------------------------3-------|
|3---3---3-------|3/5-5-5-5--3/5-5-5-5-0-0-0---5-4-3-|

|----------------|----------------|
|----------------|----------------|
|5-5-5-5-5-5-5-5-|0-0-0-0-0-0-0-0-|
|----------------|----------------|

|----------------|----------------|
|----------------|----------------|
|1-1-1-1-1-1-1-1-|3-3-3-3-3-3-3-3-|
|----------------|----------------|

|----------------|----------------|
|----------------|----------------|
|5-5-5-5-5-5-5-5-|0-0-0-0-0-0-0-0-|
|----------------|----------------|

|----------------|----------------------------|
|----------------|----------------------------|
|----------------|----------------------------|
|3---3---3-------|3/5-5-5-5--3/5-5-5-5--3--5--|


Outro

|--------------------------------|--------------------------------|
|--------------------------------|--------------------------------|
|--------------------------------|--------------------------------|
|3p0-0-5p0-0-3p0-0-3p0-0-5p0-3h5-|3p0-0-5p0-0-3p0-0-3p0-0-6p5-3h5-|

|--------------------------------|--------------------------------|
|--------------------------------|--------------------------------|
|--------------------------------|--------------------------------|
|3p0-0-5p0-0-3p0-0-3p0-0-5p0-3h5-|3p0-0-5p0-0-3p0-0-3p0-0-5p0-0h1-|

|--------------------------------|--------------------------------|
|--------------------------------|--------------------------------|
|--------------------------------|--------------------------------|
|3p0-0-5p0-0-3p0-0-3p0-0-5p0-3h5-|3p0-0-5p0-0-3p0-0-3p0-0-6p5-3h5-|

|--------------------------------|--------------------------------|
|--------------------------------|--------------------------------|
|--------------------------------|--------------------------------|
|3p0-0-5p0-0-3p0-0-3p0-0-5p0-3h5-|3p0-0-5p0-0-3p0-0-3p0-0-5p0-0h1-|


Hope thats perty close!
Tap to rate this tab
# A B C D E F G H I J K L M N O P Q R S T U V W X Y Z