Song name
# A B C D E F G H I J K L M N O P Q R S T U V W X Y Z

Divide The Day - One Night Stand tab

mad time invested in this song :)
Tuning = Db Ab Db Gb Bb Eb


Intro
|-----------------------------------|-----------------------------|
|-----------------------------------|-----------------------------|
|--5-7-7--5-7--5-7------------------|--5-7-7--5-7--5-7------------|
|--5-7-7--5-7--5-7------------------|--5-7-7--5-7--5-7------------|
|----5-5----5----5--/3-0-0-3h5-3p0--|----5-5----5----5--3bbbbbbb--|
|-------------------/3-0-0-3h5-3p0--|-----------------------------|

|-----------------------------------|-----------------------------------|
|-----------------------------------|-----------------------------------|
|--5-7-7--5-7--5-7------------------|--5-7-7--5-7--5-7------------------|
|-----------------------------------|-----------------------------------|
|-------------------/3-0-0-3h5-3p0--|-------------------5b-5-0-5br-0-3--|
|-------------------/3-0-0-3h5-3p0--|-------------------5b-5-0-5br-0-3--|

|------------------------------------------------------------------------|
|-------------------------------------13---------------------------------|
|-------10--9/10\9-10------10--9/10\9---------10--9/10\9/12-10-9h10p9\7--|
|--12-12--12----------12-12--12----------12-12--12-----------------------|
|------------------------------------------------------------------------|
|------------------------------------------------------------------------|
 PM.....  ..          .....  ..          .....  ..

|------------------------------------------------------------------------|
|-------------------------------------13---------------------------------|
|-------10--9/10\9-10------10--9/10\9---------10--9/10\9/14-12-9h10p9\7--|
|--12-12--12----------12-12--12----------12-12--12-----------------------|
|------------------------------------------------------------------------|
|------------------------------------------------------------------------|
 PM.....  ..          .....  ..          .....  ..

Verses
|----------------------------------------------------------------------|
|----------------------------------------------------------------------|
|--7-7-7-7-7-7-7-7-------------------5-5-5-5-5-5-5-5-------------------|
|--7-7-7-7-7-7-7-7--3-3-3-3-3-3-3-3--5-5-5-5-5-5-5-5--5-5-5-5-5-5-5-5--|
|--5-5-5-5-5-5-5-5--3-3-3-3-3-3-3-3--3-3-3-3-3-3-3-3--5-5-5-5-5-5-5-5--|
|-------------------3-3-3-3-3-3-3-3-------------------5-5-5-5-5-5-5-5--|
   ...............  ...............  ...............  ...............

|----------------------------------------------------------------------|
|----------------------------------------------------------------------|
|--7-7-7-7-7-7-7-7-------------------5-5-5-5-5-5-5-5-------------------|
|--7-7-7-7-7-7-7-7--3-3-3-3-3-3-3-3--5-5-5-5-5-5-5-5--5-5-5-5-5-5-5-5--|
|--5-5-5-5-5-5-5-5--3-3-3-3-3-3-3-3--3-3-3-3-3-3-3-3--5-5-5-5-5-5-5-5--|
|-------------------3-3-3-3-3-3-3-3-------------------5-5-5-5-5-5-5-5--|
   ...............  ...............  ...............  ...............

|----------------------------------------------------------------------|
|----------------------------------------------------------------------|
|--7-7-7-7-7-7-7-7-------------------5-5-5-5-5-5-5-5-------------------|
|--7-7-7-7-7-7-7-7--3-3-3-3-3-3-3-3--5-5-5-5-5-5-5-5--5-5-5-5-5-5-5-5--|
|--5-5-5-5-5-5-5-5--3-3-3-3-3-3-3-3--3-3-3-3-3-3-3-3--5-5-5-5-5-5-5-5--|
|-------------------3-3-3-3-3-3-3-3-------------------5-5-5-5-5-5-5-5--|
   ...............  ...............  ...............  ...............

|--------------------------------------------------------------|
|--------------------------------------------------------------|
|--------------------------------------------------------------|
|--8-8-8-8-8-8-8-8-8-8-8-8-8-8-8-8--10-10-10\------------------|
|--8-8-8-8-8-8-8-8-8-8-8-8-8-8-8-8--10-10-10\--5b-5-0-5br-0-3--|
|--8-8-8-8-8-8-8-8-8-8-8-8-8-8-8-8--10-10-10\--5b-5-0-5br-0-3--|
   ...............................


Choruses
|----------------------------------------------------------------------|
|----------------------------------------------------------------------|
|--7-7-7-7-7-7-7-7-------------------5-5-5-5-5-5-5-5-------------------|
|--7-7-7-7-7-7-7-7--3-3-3-3-3-3-3-3--5-5-5-5-5-5-5-5--5-5-5-5-5-5-5-5--|
|--5-5-5-5-5-5-5-5--3-3-3-3-3-3-3-3--3-3-3-3-3-3-3-3--5-5-5-5-5-5-5-5--|
|-------------------3-3-3-3-3-3-3-3-------------------5-5-5-5-5-5-5-5--|

|---------------------------------------------------------------------|
|---------------------------------------------------------------------|
|--7-7-7-7-7-7-7-7-------------------5-5-5-5-5-5-5-5------------------|
|--7-7-7-7-7-7-7-7--3-3-3-3-3-3-3-3--5-5-5-5-5-5-5-5------------------|
|--5-5-5-5-5-5-5-5--3-3-3-3-3-3-3-3--3-3-3-3-3-3-3-3--5b-5-0-5br-0-3--|
|-------------------3-3-3-3-3-3-3-3-------------------5b-5-0-5br-0-3--|

|----------------------------------------------------------------------|
|----------------------------------------------------------------------|
|--7-7-7-7-7-7-7-7-------------------5-5-5-5-5-5-5-5-------------------|
|--7-7-7-7-7-7-7-7--3-3-3-3-3-3-3-3--5-5-5-5-5-5-5-5--5-5-5-5-5-5-5-5--|
|--5-5-5-5-5-5-5-5--3-3-3-3-3-3-3-3--3-3-3-3-3-3-3-3--5-5-5-5-5-5-5-5--|
|-------------------3-3-3-3-3-3-3-3-------------------5-5-5-5-5-5-5-5--|

|---------------------------------------------------------------------|
|---------------------------------------------------------------------|
|--7-7-7-7-7-7-7-7-------------------5-5-5-5-5-5-5-5------------------|
|--7-7-7-7-7-7-7-7--3-3-3-3-3-3-3-3--5-5-5-5-5-5-5-5------------------|
|--5-5-5-5-5-5-5-5--3-3-3-3-3-3-3-3--3-3-3-3-3-3-3-3--5b-5-0-5br-0-3--|
|-------------------3-3-3-3-3-3-3-3-------------------5b-5-0-5br-0-3--|


Solo
|------------------------------|----------------------------20--------|
|---------------/10~~~~~~~~~~--|--20r-18-20-18--18~~~~~--20b--20r-18--|
|---------------/10~~~~~~~~~~--|--------------19----------------------|
|------------------------------|--------------------------------------|
|--5~~~~~~~~~~-----------------|--------------------------------------|
|------------------------------|--------------------------------------|

 --20b~~~~~--|--13---------------------|-------------|
 ------------|--13brp10-13p10----------|--15p10--10--|
 ------------|----------------12~~~~~--|-------12----|
 ------------|-------------------------|-------------|
 ------------|-------------------------|----|
 ------------|-------------------------|-------------|

 --15p10-----------------------------------|--------------------------------|
 -------13p10------13p10-------------------|--------------------------------|
 ------------12p10------12p10-----10~~~~~--|-------------------10-12----10--|
 ----------------------------12p10---------|--------------10-12------12-----|
 ------------------------------------------|-------8-10/12------------------|
 ------------------------------------------|--10-12-------------------------|
                                              .............................

 ---------------------------|
 -----13--------------------|
 --12b--12r-10----10~~~~~\--|
 --------------12-----------|
 ---------------------------|
 ---------------------------|


Outro
|------------------|------------------|--------------------|
|------------------|------------------|--------------------|
|------------------|------------------|--------------------|
|------------------|------------------|--------------------|
|--5b-5-0-5br-3-5--|--5b-5-0-5br-3-5--|--5b-5-0-5br-0-3-0--|
|--5b-5-0-5br-3-5--|--5b-5-0-5br-3-5--|--5b-5-0-5br-0-3-0--|


sick song. Thats it except for some of the little
leads during the chorus/verses, which shouldnt be too
hard to figure out on your own. Give a good rating!
Tap to rate this tab
# A B C D E F G H I J K L M N O P Q R S T U V W X Y Z