Song name
# A B C D E F G H I J K L M N O P Q R S T U V W X Y Z

Divide The Day - Let It Roll tab

INTRO
E|---------------------------------------------------------|
B|---------------------------------------------------------|
G|----------------9-7----------------------9-7-------------|
D|------8-7-5-7-5------8-7---------8-7-5-7-----8-7-5~------|
A|---7----------------------7~-----------------------------|
D|---------------------------------------------------------|


e|---------------------------------------------------------|
B|---------------------------------------------------------|
G|----------------9-7--------------------------------------|
D|------8-7-5-7-5------8-7----------8-7-5-7^---------------|
A|---7----------------------7~-----------------------------|
D|---------------------------------------------------------|


riff 1
e|-------------------------------------------------------------------------|
B|-------------------------------------------------------------------------|
G|-------------------------------------------------------------------------|
D|-------------------------------------------------------------------------|
A|--2--2-22----------------2-22----7-5-------2--2-22-----------7-5---------|
D|--2--2-22---8-7-5-7-5~---2-22--------8-7---2--2-22---8-7-5-7~----8-7-5~--|
 
 |-----------------------------2x------------------------------------------|


verse 1
e|-------------------------------------------------------------------------|
B|-------------------------------------------------------------------------|
G|-------------------------------------------------------------------------|
D|-------------------------------------------------------------------------|
A|-2-----------------------------------------------------------------------|
D|-2--2-2-2-2-2-2-2-2-2-2-2-2-2-2-2-2-2-2-2-2-2-2-2-2-2-2-2-2-2-2-2-2-2-2--|
  PM  . . . . . . . . . . . . . . . . . . . . . . . . . . . . . . . . . .
      |----------------check the rythm----------------------------------|


e|-------------------------------------------------------------------------|
B|-------------------------------------------------------------------------|
G|-------------------------------------------------------------------------|
D|-------------------------------------------------------------------------|
A|--5--2-7-5-7-5---2-------------------------------------------------------|
D|--5--2-7-5-7-5---2-2-2-2-2-2-2-2-2-2-2-2-2-2-2-2-2-2-2-2-2-2-2-2-2-2-2-2-|
               PM    . . . . . . . . . . . . . . . . . . . . . . . . . . . 



                    |pre-chorus---------------------------|

e|--------------------------------------------------------|
B|--------------------------------------------------------|
G|--------------------------------------------------------|
D|------------------5----------5--------------------------|
A|--5--2-7-5-7-5----3----2-----3---7---7-7-7-7-7-7--------|
D|--5--2-7-5-7-5---------2---------7---7-7-7-7-7-7--------|
                                   PM  . . . . . .


chorus
e|-------------------------------------------------------------------------|
B|-------------------------------------------------------------------------|
G|-------------------------------------------------------------------------|
D|-------------------------------------------------------------------------|
A|--2-2--5-5--0-0--7--7-7-7-5-----2-2--5-5--0-0--7--7-7-7-5----------------|
D|--2-2--5-5--0-0--7--7-7-7-5-----2-2--5-5--0-0--7--7-7-7-5----------------|


e|-------------------------------------------------------------|
B|-------------------------------------------------------------|
G|-------------------------------------------------------------|
D|-------------------------------5--5-5------------------------|
A|--2-2--5-5--0-0--7--7-7-7-5----3--3-3-0-0-0-2--2-2-2-2-0-----|
D|--2-2--5-5--0-0--7--7-7-7-5-----------0-0-0-2--2-2-2-2-0-----|


e|-------------------------------------------------------------------------|
B|-------------------------------------------------------------------------|
G|-------------------------------------------------------------------------|
D|--5--5-5----------------------5--5-5----------------------5--5-5---------|
A|--3--3-3-0-0-0-2--2-2-2-2-0---3--3-3-0-0-0-2--2-2-2-2-0---3--3-3--0-0-0--|
D|---------0-0-0-2--2-2-2-2-0----------0-0-0-2--2-2-2-2-0-----------0-0-0--|



riff 2
e|-------------------------------------------------------------------------|
B|-------------------------------------------------------------------------|
G|-------------------------------------------------------------------------|
D|-------------------------------------------------------------------------|
A|--2--2-22----------------2-22----7-5-------2--2-22-----------7-5---------|
D|--2--2-22---8-7-5-7-5~---2-22--------8-7---2--2-22---8-7-5-7~----8-7-5~--|


verse 2
e|-------------------------------------------------------------------------|
B|-------------------------------------------------------------------------|
G|-------------------------------------------------------------------------|
D|-------------------------------------------------------------------------|
A|-2-----------------------------------------------------------------------|
D|-2--2-2-2-2-2-2-2-2-2-2-2-2-2-2-2-2-2-2-2-2-2-2-2-2-2-2-2-2-2-2-2-2-2-2--|
  PM  . . . . . . . . . . . . . . . . . . . . . . . . . . . . . . . . . .
      |----------------check the rythm----------------------------------|


e|-------------------------------------------------------------------------|
B|-------------------------------------------------------------------------|
G|-------------------------------------------------------------------------|
D|-------------------------------------------------------------------------|
A|--5--2-7-5-7-5---2-------------------------------------------------------|
D|--5--2-7-5-7-5---2-2-2-2-2-2-2-2-2-2-2-2-2-2-2-2-2-2-2-2-2-2-2-2-2-2-2-2-|
               PM    . . . . . . . . . . . . . . . . . . . . . . . . . . . 



                    |pre-chorus 2-------------------------|

e|--------------------------------------------------------|
B|--------------------------------------------------------|
G|--------------------------------------------------------|
D|------------------5----------5--------------------------|
A|--5--2-7-5-7-5----3----2-----3---7---7-7-7-7-7-7--------|
D|--5--2-7-5-7-5---------2---------7---7-7-7-7-7-7--------|
                                   PM  . . . . . .


chorus 2
e|-------------------------------------------------------------------------|
B|-------------------------------------------------------------------------|
G|-------------------------------------------------------------------------|
D|-------------------------------------------------------------------------|
A|--2-2--5-5--0-0--7--7-7-7-5-----2-2--5-5--0-0--7--7-7-7-5----------------|
D|--2-2--5-5--0-0--7--7-7-7-5-----2-2--5-5--0-0--7--7-7-7-5----------------|


e|-------------------------------------------------------------|
B|-------------------------------------------------------------|
G|-------------------------------------------------------------|
D|-------------------------------5--5-5------------------------|
A|--2-2--5-5--0-0--7--7-7-7-5----3--3-3-0-0-0-2--2-2-2-2-0-----|
D|--2-2--5-5--0-0--7--7-7-7-5-----------0-0-0-2--2-2-2-2-0-----|


e|----------------------------------------------------|
B|----------------------------------------------------|
G|----------------------------------------------------|
D|--5--5-5----------------------5--5-5----------------|
A|--3--3-3-0-0-0-2--2-2-2-2-0---3--3-3-0-0-0----------|
D|---------0-0-0-2--2-2-2-2-0----------0-0-0----------|


bridge
e|--------------------------------------------------|
B|--------------------------------------------------|
G|--------------------------------------------------|
D|--------------------------------------------------|
A|---------------------------------8-7-5-7----------|
D|-2/14/2---2-2/14/2---2-2/14/2----8-7-5-7----------|
   |----------slides----------|

e|--------------------------------------------------|
B|--------------------------------------------------|
G|--------------------------------------------------|
D|--------------------------------------------------|
A|---------------------------------8-7-5-7----------|
D|-2/14/2---2-2/14/2---2-2/14/2----8-7-5-7----------|
   |----------slides----------|


the solo is not exactly like that but itīs closer to the song
solo so please check the rythm in the tapping parts

solo

                 tapping(check the rythm)
e|----------------------------------------12----17-15-12-10-------|
B|-----8-10-8----8-10-8-10-8-10-8-10-8----------------------------|
G|---9------------------------------------------------------------|
D|----------------------------------------------------------------|
A|----------------------------------------------------------------|
D|----------------------------------------------------------------|

      |---tapping--|    |-tapping----|    |--tapping-|
B|-------------------10-12-10-12-10-12--8-10-8-10-8-10---------------------|
G|-----------------------------------------------------9~------------------|
D|-------------------------------------------------------------------------|
A|-------------------------------------------------------------------------|
D|-------------------------------------------------------------------------|

last pre-chorus
e|-------------------------------------------------------------------------|
B|-------------------------------------------------------------------------|
G|-------------------------------------------------------------------------|
D|-------------------------------------------------------------------------|
A|-------------------------------------------------------------------------|
D|-2-2-2-2-2-2-2-2-2-2-2-2-2-2-2-2-2-2-2-2-2-2-2-2-2-2-2-2-2-2-2-2-2-2-2-2-|
PM . . . . . . . . . . . . . . . . . . . . . . . . . 

e|-------------------------------------------------------------------------|
B|-------------------------------------------------------------------------|
G|-------------------------------------------------------------------------|
D|-----5----------5--------------------------------------------------------|
A|-----3----2-----3---7---7-7-7-7-7-7-7-7-7-7-7-7-7-7-7-7-7-7-7-7----------|
D|----------2---------7---7-7-7-7-7-7-7-7-7-7-7-7-7-7-7-7-7-7-7-7----------|
                      PM  . . . . . . . . . . . . . 
                          |-----check the rythm of the song-----|


last chorus
e|-------------------------------------------------------------------------|
B|-------------------------------------------------------------------------|
G|-------------------------------------------------------------------------|
D|-------------------------------------------------------------------------|
A|--2-2--5-5--0-0--7--7-7-7-5-------2-2--5-5--0-0--7--7-7-7-5--------------|
D|--2-2--5-5--0-0--7--7-7-7-5-------2-2--5-5--0-0--7--7-7-7-5--------------|


e|-------------------------------------------------|
B|-------------------------------------------------|
G|-------------------------------------------------|
D|-------------------------------5--5-5------------|
A|--2-2--5-5--0-0--7--7-7-7-5----3--3-3-0-0-0------|
D|--2-2--5-5--0-0--7--7-7-7-5-----------0-0-0------|

e|-------------------------------------------------------------------------|
B|-------------------------------------------------------------------------|
G|-------------------------------------------------------------------------|
D|-------------------------------------------------------------------------|
A|--2-2--5-5--0-0--7--7-7-7-5-------2-2--5-5--0-0--7--7-7-7-5--------------|
D|--2-2--5-5--0-0--7--7-7-7-5-------2-2--5-5--0-0--7--7-7-7-5--------------|


e|-------------------------------------|
B|-------------------------------------|
G|-------------------------------------|
D|-------------------------------------|
A|--2-2--5-5--0-0--7--7-7-7-5----------|
D|--2-2--5-5--0-0--7--7-7-7-5----------|

e|-----------------------------------------------------------------|
B|-----------------------------------------------------------------|
G|-----------------------------------------------------------------|
D|--5--5-5----------------------5--5-5-----------------------------|
A|--3--3-3-0-0-0-2--2-2-2-2-0---3--3-3-0-0-0-2--2-2-2-2-0----------|
D|---------0-0-0-2--2-2-2-2-0----------0-0-0-2--2-2-2-2-0----------|

e|-----------------------------------------------------|
B|-----------------------------------------------------|
G|-----------------------------------------------------|
D|--5--5-5----------------------5--5-5-----------------|
A|--3--3-3-0-0-0-2--2-2-2-2-0---3--3-3-0-0-0-----------|
D|---------0-0-0-2--2-2-2-2-0----------0-0-0-----------|

outro
e|-------------------------------------------------------------------------|
B|-------------------------------------------------------------------------|
G|-------------------------------------------------------------------------|
D|-------------------------------------------------------------------------|
A|--2--2-22----------------2-22----7-5-------2--2-22-----------7-5---------|
D|--2--2-22---8-7-5-7-5~---2-22--------8-7---2--2-22---8-7-5-7~----8-7-5~--|
 
e|--------------------------------------------------------------------------|
B|--------------------------------------------------------------------------|
G|--------------------------------------------------------------------------|
D|--------------------------------------------------------------------------|
A|--2--2-22----------------2-22---7-5-------2--2-22-----------7-5---------2-|
D|--2--2-22---8-7-5-7-5~---2-22-------8-7---2--2-22---8-7-5-7~----8-7-5~--2-|
 
Tap to rate this tab
 
# A B C D E F G H I J K L M N O P Q R S T U V W X Y Z