Song name
# A B C D E F G H I J K L M N O P Q R S T U V W X Y Z

Divide The Day - File This Under Great Ideas At The Time tab

-------------------------------------------------------------------------------
            File This Under Great Ideas At the Time - Divide the Day
-------------------------------------------------------------------------------
Tabbed by: ben
Email: bkane531@yahoo.com

ok so here's the deal. i figured all this out by myself, and i pretty much only
tabbed 1 guitar, the rythm guitar. i also tabbed the riff right before the
breakdown just for kicks.
ALSO: i think that either their tuned to drop C or just 1 guitar is..or just the
bass because the the beginning you can hear it drop to lower instead of going up
like i have it...but theres deffinatly 1 guitar doing what i tabbed out, so it
sounds perfect, i swear.

hope this helps.

Intro

e|---------------------------------------------------------------------------|
B|---------------------------------------------------------------------------|
G|4444444444444444/8888888888888888------------------------------------------|
D|2222222222222222/6666666666666666---(2x)-----------------------------------|
A|2222222222222222/6666666666666666------------------------------------------|
D|2222222222222222/6666666666666666------------------------------------------|

Verse
really hard to hear cause of bass, and only 1 guitar does it so dont worry about it
e|---------------------------------------------------------------------------|
B|---------------------------------------------------------------------------|
G|---------------------------------------------------------------------------|
D|---------------------------------------------------------------------------|
A|---------------------------------------------------------------------------|
D|---------------------------------------------------------------------------|

Intro again
e|---------------------------------------------------------------------------|
B|---------------------------------------------------------------------------|
G|4444444444444444/8888888888888888------------------------------------------|
D|2222222222222222/6666666666666666---(2x)-----------------------------------|
A|2222222222222222/6666666666666666------------------------------------------|
D|2222222222222222/6666666666666666------------------------------------------|

Verse 2 (distorted one)
PLAY TWICE
e|-----------------------------------------------------------------------------|
B|-----------------------------------------------------------------------------|
G|-----------------------------------------------------------------------------|
D|------------------------------13h14p13----18-16-14~--------------------------|
A|11x-(16 times)-9x-(16 times)----------14~------------------------------------|
D|-----------------------------------------------------------------------------|

NOTE: There is other stuff being played during this verse but this sounds good

then...
e|---------------------------------------------------------------------------|
B|---------------------------------------------------------------------------|
G|---------------------------------------------------------------------------|
D|4x-------6x-------------------------(2x)-----------------------------------|
A|4x-(16x)-6x-(16x)----------------------------------------------------------|
D|4x-------6x----------------------------------------------------------------|

Chorus pt. 1 (it seems today...)

e|---------------------------------------------------------------------------|
B|---------------------------------------------------------------------------|
G|------------------888-88888-888--------------------------------------------|
D|22222-22222-222-66666-66666-666-----------(2x)-----------------------------|
A|22222-22222-222-66666-66666-666--------------------------------------------|
D|22222-22222-222-66666-66666-666--------------------------------------------|

Chorus pt. 2 (lay your hands on me...)

e|-----------------------------------------------------------------------------|
B|-----------------------------------------------------------------------------|
G|------------SAME AS INTRO----------------------------------------------------|
D|-----------------------------------------------------------------------------|
A|-----------------------------------------------------------------------------|
D|-----------------------------------------------------------------------------|

post chorus, pre-breakdown

e|-----------------------------------------------------------------------------|
B|-----------------------------------------------------------------------------|
G|-----------------------------------------------------------------------------|
D|7x-(8times)-9x-(8times)-11x-(8times)-12x-(4times)-14x-(4 times)--------------|
A|-----------------------------------------------------------------------------|
D|-----------------------------------------------------------------------------|

ok heres the riff i was talking about.
guitar 1 goes quite, and its just the bass and this guitar doing this...

e|----------12---------------------------------------------------------------|
B|10p9----9----10p9h10-------------------------------------------------------|
G|-----11-----------------------------------(4x)-----------------------------|
D|---------------------------------------------------------------------------|
A|---------------------------------------------------------------------------|
D|---------------------------------------------------------------------------|

then this again...

e|-----------------------------------------------------------------------------|
B|-----------------------------------------------------------------------------|
G|-----------------------------------------------------------------------------|
D|7x-(8times)-9x-(8times)-11x-(8times)-12x-(4times)-14x-(4 times)--------------|
A|-----------------------------------------------------------------------------|
D|-----------------------------------------------------------------------------|

then this... (screaming starts)

e|---------------------------------------------------------------------------|
B|---------------------------------------------------------------------------|
G|---------------------------------------------------------------------------|
D|4--------------------------------------------------------------------------|
A|4---(36x)------------------------------------------------------------------|
D|4--------------------------------------------------------------------------|

more screaming...
rythm is hard to tab out, you'll hear it

e|-------------------------------------------------------------------------------|
B|-------------------------------------------------------------------------------|
G|-------------------------------------------------------------------------------|
D|00---00-00--0000--00----------(2x)---------------------------------------------|
A|00---00-00--0000--00-----------------------------------------------------------|
D|00---00-00--0000--00-----------------------------------------------------------|
  xx   xx xx  xxxx  xx

BREAKDOWN, dual screaming etc
while this is going on, the riff from before is being played...

e|---------------------------------------------------------------------------|
B|---------------------------------------------------------------------------|
G|---------------------------------------------------------------------------|
D|44--4-444-44-44--4-444-44--0~----------------------------------------------|
A|44--4-444-44-44--4-444-44--0~----------------------------------------------|
D|44--4-444-44-44--4-444-44--0~----------------------------------------------|

Last Chorus
let that last open chord ring...then play intro:

e|---------------------------------------------------------------------------|
B|---------------------------------------------------------------------------|
G|4444444444444444/8888888888888888------------------------------------------|
D|2222222222222222/6666666666666666---(2x)-----------------------------------|
A|2222222222222222/6666666666666666------------------------------------------|
D|2222222222222222/6666666666666666------------------------------------------|

then...

e|---------------------------------------------------------------------------|
B|---------------------------------------------------------------------------|
G|------------------888-88888-888--------------------------------------------|
D|22222-22222-222-66666-66666-666-----------(2x)-----------------------------|
A|22222-22222-222-66666-66666-666--------------------------------------------|
D|22222-22222-222-66666-66666-666--------------------------------------------|

then when the drum beat picks up for the last few measures just play the intro but not 
many picks per chord.

then the last riff:

e|--------------------|
B|--------------------|
G|--------------------|
D|18-16-14-18-16-14~--|
A|--------------------|
D|--------------------|

hopefully that wasnt confusing....

| /  slide up
| \  slide down
| h  hammer-on
| p  pull-off
| ~  vibrato
| +  harmonic
| x  Mute note
===============================================================================
Tap to rate this tab
 
# A B C D E F G H I J K L M N O P Q R S T U V W X Y Z