Song name
# A B C D E F G H I J K L M N O P Q R S T U V W X Y Z

Divided Regions - Ascensions Curse tab

-------------------------------------------------------------------------------
			     ASCENSIONS CURSE - DIVIDED REGIONS
-------------------------------------------------------------------------------
Tabbed by:DIVIDED REGIONS
Email: DIVIDEDREGIONS@GMAIL.COM

Tuning: (standard) *Half step down

RIFF 1
e|---------------------------------------------------------------------------|
B|---------------------------------------------------------------------------|
G|-5-4-----5-4-9-10-5-4------------------------------------------------------|
D|-5-4-4-3-5-4-9-10-5-4-4-3-----------------4--------------------------------|
A|-3-2-4-3-3-2-7-8--3-2-4-3-3h6-3h6-3h6-3h6---2------------------------------|
E|-----2-1--------------2-1---------------------6-3--------------------------|

RIFF 2 repeat 3x's              (Every other time)    
e|-----------------|--------------------|--------------------------------------|
B|-----------------|--------------------|--------------------------------------|
G|-----------------|--------------------|--------------------------------------|
D|-4-------6-------|--------------------|----------------4444------------------|
A|---2-------3-----|-333-66--666-99-----|-----------2222-----------------------|
E|-----6-3-----6-3-|-333-66--666-99-----|-1111-4444----------------------------|


(Also use this for cymbal catches on the guitar and bass trade off)
E|--------------------------------------|
B|--------------------------------------|
G|--------------------------------------|
D|----------------4444------------------|
A|-----------2222-----------------------|
E|-1111-4444----------------------------|

RIFF 4                                    (Every other time)
e|--------------------------------------|-------------------------------------|
B|--------------------------------------|-------------------------------------|
G|-------------4-5----------------------|-3-----------------------------------|
D|-3-6---4-3-6-4-5-3-6---4-5-----4------|-3-2---------------------------------|
A|-3-6-2---3-6-2-3-3-6-2-----4-----3----|-1-2---------------------------------|
E|-1-4-----1-4-----1-4---------3-----2--|-1-0---------------------------------|

RIFF 5 (BREAKDOWN)
e|---------------------------------------------------------------------------|
B|---------------------------------------------------------------------------|
G|-3-------------------------------------------------------------------------|
D|-3-2-----------------------------------------------------------------------|
A|-1-2--11-11--11--11--------------------------------------------------------|
E|-1-0--11-11--11--11--------------------------------------------------------|

RIFF 6
e|---------------------------------------------------------------------------|
B|---------------------------------------------------------------------------|
G|---------------------------------------------------------------------------|
D|---------------------2-1---------------------------------------------------|
A|-----------3333-2222-2-1---------------------------------------------------|
E|-0000-1111-----------2-1---------------------------------------------------|

************************************

| /   slide up
| \   slide down
| h   hammer-on
| p   pull-off
| ~   vibrato
| +   harmonic
| x   Mute note
| b   Bend
| pb  Pre-bend
| br  Bend release
| pbr Pre-bend release
| brb Bend release bend

************************************
Tap to rate this tab
 
# A B C D E F G H I J K L M N O P Q R S T U V W X Y Z