Song name
# A B C D E F G H I J K L M N O P Q R S T U V W X Y Z

Divided Regions - Sacrificial Obsession tab

-------------------------------------------------------------------------------
                             SACRIFICIAL OBSESSION - DIVIDED REGIONS 
-------------------------------------------------------------------------------
Tabbed by:DIVIDED REGIONS
Email:DIVIDEDREGIONS@GMAIL.COM
WWW.REVERBNATION.COM/DIVIDEDREGION

Tuning:Eb G# C# F# Bb Eb
PALM MUTE    RING OUT 2X                        REPEAT 2X
e|----------------------------------------------------------------------------|
B|----------------------------------------------------------------------------|
G|-3---------3--3--4--3----------------------3--4-3--7-3----------------------|
D|-3---------3--3--4--3----------------------3--4-3--7-3----------------------|
A|-1---------1--1--2--1----------------------1--2-1--5-1----------------------|
E|-1---------1--1--2--1--8-6-5-7-4--5-2-4-1--1--2-1--5-1--8-6-5-7-4--5-2-4-1--|
BREAK DOWN 3 1/2X        THEN GUITAR SLIDE ON ALL THE STRINGS>>>>>>>>
e|---------------------------------------------------------------------------|
B|---------------------------------------------------------------------------|
G|---------------------------------------------------------------------------|
D|---------------------------------------------------------------------------|
A|-------7-4--5-2-4-1--------------------------------------------------------|
E|-8-6-5-7-4--5-2-4-1--------------------------------------------------------|
RIFF 1 REPEAT 2X
e|---------------------------------------------------------------------------|
B|---------------------------------------------------------------------------|
G|---------------------------------------------------------------------------|
D|--------------------------3------------------------------------------------|
A|--6--6--6--6---5--5-----5----6--6--6--6--5--5----------------5-------------|
E|-3--3--3--3---2--2--3-6-----3--3--3--3--2--2---0-0-0-0-0-0-3---------------|
RIFF 2 2X                                                                     PALM MUTE(LAST TIME)
e|---------------------------------------------------------------|------------|
B|---------------------------------------------------------------|------------|
G|---------------------------------------------------------------|------------|
D|---5-4-----4-3------5-4-----4-3----------------------------3---|-5-8-7------|
A|-3-----5-2-----4-3------5-2-----4---6--6--6--6--5--5-----5-----|-5-8-7------|
E|-----------------------------------3--3--3--3--2--2--3-6-------|-3-6-5------|
THRASH RIFF 1X                                  HEAVY TEASER
e|-------------------------------------|--------------------------------------|
B|-------------------------------------|--------------------------------------|
G|------7----5-8-7---------7----5------|--5-4-5--8-7--5-4-5-------------------|
D|-5--8-7-8--5-8-7-8--5--8-7-8--5------|--5-4-5--8-7--5-4-5-------------------|
A|-5--8-5-8--3-6-5-8--5--8-5-8--3------|--3-2-3--6-5--3-2-3-------------------|
E|-3--6---6--------6--3--6---6---------|--3-2-3--6-5--3-2-3-------------------|
THRASH RIFF 3X                                   PLAY AFTER 3X
e|----------------------------------------|-----------------------------------|
B|----------------------------------------|-----------------------------------|
G|------7----5-8-7---------7----5---------|---------4B-------------3B---------|
D|-5--8-7-8--5-8-7-8--5--8-7-8--5-5-4-----|-------5----------3-2--------------|
A|-5--8-5-8--3-6-5-8--5--8-5-8--3-----5---|-3-5-4------5-4-2-----5------------|
E|-3--6---6--------6--3--6---6------------|-----------------------------------|
BREAK DOWN/BRIDGE 4X
e|---------------------------------------------------------------------------|
B|---------------------------------------------------------------------------|
G|---------------------------------------------------------------------------|
D|---5-4-----5-4------8-7-----7-6--------------------------------------------|
A|-3-----5-3-----5--6----8--5-----7------------------------------------------|
E|-3-------3--------6-------5------------------------------------------------|
ENDING RIFF RUNG OUT AND PALM MUTED
e|---------------------------------------------------------------------------|
B|---------------------------------------------------------------------------|
G|-5-5---8---7---------------------------------------------------------------|
D|-5-5---8---7---------------------------------------------------------------|
A|-3-3---6---5---------------------------------------------------------------|
E|-3-3---6---5---------------------------------------------------------------|




************************************

| /   slide up
| \   slide down
| h   hammer-on
| p   pull-off
| ~   vibrato
| +   harmonic
| x   Mute note
| b   Bend
| pb  Pre-bend
| br  Bend release
| pbr Pre-bend release
| brb Bend release bend

************************************
Tap to rate this tab
# A B C D E F G H I J K L M N O P Q R S T U V W X Y Z