Song name
# A B C D E F G H I J K L M N O P Q R S T U V W X Y Z

Divided Regions - Predecessors Of The Blackened Void tab

-------------------------------------------------------------------------------
                             Predecessors of the Blackened void - DIVIDED REGIONS
-------------------------------------------------------------------------------
Tabbed by:DIVIDED REGIONS
Email:DIVIDEDREGIONS@GMAIL.COM

Tuning:Eb G# C# F# Bb Eb

~SONG STRUCTURE~
INTRO 1X
VERSE 2X
PRE CHORUS 2X
CHORUS 4X
VERSE/INTRO/SOLO/BREAK 2X
PRE CHORUS 2X
CHORUS 4X
INTRO RIFF 1/2
INTRO/VERSE 1X

  INTRO/VERSE                               - PALM MUTE - OPEN BEFORE CHORUS -
e|---------------------------------------------------------------------------|
B|---------------------------------------------------------------------------|
G|--------------------------------------9-11---9-11-12---7-10-6--------------|
D|-12-11-9-11-9-11-7-6--12-11-9-11-9-11-9-11---9-11-12---7-10-6--------------|
A|-12-11-9-11-9-11-7-6--12-11-9-11-9-11-7-9--|-7-9--10-|-5-8--4--------------|
E|-10-9--7-9--7-9--5-4--10-9--7-9--7-9-------|-------------------------------|
  PRE CHORUS
e|--------------------------|-------------------------------------------------|
B|--------------------------|-------------------------------------------------|
G|-12-11-----10-----7-10--6-|-12-11------10--7-6------------------------------|
D|-12-11-12--10-11--7-10--6-|-12-11--12--10--7-6--7-5-4-----------------------|
A|-10-9--12--8--11--5-8---4-|-10-9---12--8---5-4--7-5-4-----------------------|
E|-------10-----9-----------|--------10-----------5-3-2-----------------------|
  CHORUS                                           - PALM MUTE -
e|---------------------------------------------------------------------------|
B|---------------------------------------------------------------------------|
G|-7-6--------7-6------3-7-6-------------------------------------------------|
D|-7-6-7-5-4--7-6-7-5--3-7-6--7-5-4------------------------------------------|
A|-5-4-7-5-4--5-4-7-5--1-5-4--7-5-4------------------------------------------|
E|-----5-3-2------5-3---------5-3-2--1-1-1-1-3-3-3-3-------------------------|
  BRIDGE/BREAKDOWN
e|------------------------------------------------------------------------------|
B|------------------------------------------------------------------------------|
G|-4--7-6----5-5----------------------------------------------------------------|
D|-4--7-6-7--5-5----------------------------------------------------------------|
A|-2--5-4-7--3-3----------------------------------------------------------------|
E|-2------5----3----------------------------------------------------------------|



************************************

| /   slide up
| \   slide down
| h   hammer-on
| p   pull-off
| ~   vibrato
| +   harmonic
| x   Mute note
| b   Bend
| pb  Pre-bend
| br  Bend release
| pbr Pre-bend release
| brb Bend release bend

************************************
Tap to rate this tab
# A B C D E F G H I J K L M N O P Q R S T U V W X Y Z