Song name
# A B C D E F G H I J K L M N O P Q R S T U V W X Y Z

Divididos - Ala Delta tab

Help us improve GuitareTab! Take a short survey!
/Divididos
/Ala Delta


Intro
    D  E
e|--2------|
B|--3------|
G|--2--1---|
D|--0--2---|
A|-----2---|
E|-----0---|


Verse
    E  D  A  E    D  E
e|-----2--0-------2----|
B|-----3--2-------3----|
G|--1--2--2--1----2--1-|
D|--2--0--2--2----0--2-|
A|--2-----0--2-------2-|
E|--0--------0-------0-|


Chorus
    D  G  E
e|--2--3-----|
B|--3--0-----|
G|--2--0--1--|
D|--0--0--2--|
A|-----2--2--|
E|-----3--0--|


End

e|--2-----|
B|--3-----|
G|--2--1--|
D|--0--2--|
A|-----2--|
E|-----0--|
Related for Ala Delta tab