Song name
# A B C D E F G H I J K L M N O P Q R S T U V W X Y Z

Divine Heresy - Darkness Embedded tab

	        Darkness Embedded by DIVINE HERESY

Tabbed by: motallero
Email: motallero@hotmail.com

Tuning: A D G C F a  (or you can tune to d since you dont really need the low a string)

VERSE

e|-------------1--0(0)-----------1--0-0-----------------------------0-------|
B|------2-------------------0--------------------0-0----------0---0---0-----|
G|--------------------------------------------------------------------------|
D|--0------0---------------------------------0-----------0------------------|
A|-----------------------3-----------------1---1------1-----1----1----------|
E|--------------------------------------------------------------------------|

e|-------------1--0-0------------3--1-1-------------------------0-----------|
B|------2-------------------0--------------------0-0-----0----0---0---------|
G|-----------------------------0--------------------------------------------|
D|--0------0-----------0-2-------------------0------------------------------|
A|-----------------------------------------1---1-------1---1----------------|
E|--------------------------------------------------------------------------|
                            stop here first time ^

FILL BEFORE CHORUS

e|----------------------------------------|
B|----------------------------------------|
G|----------------------------------------|
D|-3-3-3-3-3-3-3-3-3-3-3-3----------------|
A|-1-1-1-1-1-1-1-1-1-1-1-1-1111-1111------|
E|----------------------------------------|
 PM* * * * * * * * * * * * **** ****

CHORUS

e|--------------------------------------------------------------------------|
B|--------------------------------------------------------------------------|
G|--------------------------------------5-5(0)------------ 5-5-0------------|
D|------------7------------------5------3-2-0--------------3-2-0------------|
A|-555555555555----------333333333--0----------111111111-0--0-0------0-11111|
E|--------------------------------------------------------------------------|
 PM************          *********  *          ********* *  * *        *****


e|--------------------|
B|--------------------|
G|-------5---5-0------|
D|-----2-3-0-2-0------|
A|111--0--------------|
E|--------------------|
 PM**  *   *   *          ( * = Palm Mute )
Fill (end of 2nd chorus)
e|--------------------|
B|--------------------|
G|----5--5------------|
D|----3--2------------|
A|--------------------|
E|--------------------|

Bridge
e|----------------------------------------------------------------------|
B|----------------------------------------------------------------------|
G|----------------------------------------------------------------------|
D|-0--0-0-0-0-0-0-2-3-3-3-3-3-3-3-3-3-----------------------------------|
A|-----------------------------------------------3-3-3-3-3-3-3-3-3-/-7--|
E|----------------------------------------------------------------------|


INTERLUDE

e|----------------------------------------------------------------------------------|
B|----------------------------------------------------------------------------------|
G|----------------------------------------------------------------------------------|
D|-0--0-0-0-0-0-0-0-----------------------------------------------------------------|
A|------------------------3-3-3-3-3-3-3-3-3-1-1-1-1-1-1-1-1-1-1---------------------|
E|----------------------------------------------------------------------------------|

FILL last note
e|--------------------|
B|--------------------|
G|------sl/-10--------|
D|--------------------|
A|--------------------|
E|--------------------|
Tap to rate this tab
# A B C D E F G H I J K L M N O P Q R S T U V W X Y Z