Song name
# A B C D E F G H I J K L M N O P Q R S T U V W X Y Z

Divine Heresy - Facebreaker tab

Divine Heresy
Anarchaos
Bringer Of Plauge


Ive just figuerd out the first riff of this song.
This song is played on a 8-string guitar.


I aint got the intro...
but type of the vers/riff 1

 Riff 1
|-----------------------------|
|-----------------------------|
|-----------------------------|
|-----------------------------|
|-----------------------------| 3x
|-----------------7p5-6p4-7p5-|
|-----------------------------|
|-00-0000-0000-00-------------|


|-------------------------------------------|
|-------------------------------------------|
|-------------------------------------------|
|-------------------------------------------|
|-------------------------------------------|
|-----------------7p5-6p4-7p5-11p9-10p8-8p6-|
|-------------------------------------------|
|-00-0000-0000-00---------------------------|
Tap to rate this tab
# A B C D E F G H I J K L M N O P Q R S T U V W X Y Z