Song name
# A B C D E F G H I J K L M N O P Q R S T U V W X Y Z

Divine Heresy - Facebreaker tab

e|--------------------------|  |------------------------------------------|
b|--------------------------|  |------------------------------------------|
g|----------6h9p6h9---------|  |----------6h9p6h9---------6h9p6h9---------|
D|------------------5h8p5h8-|2x|------------------5h8p5h8---------5h8p5h8-|
A|--------------------------|  |------------------------------------------|
E|--------------------------|  |------------------------------------------|
A|-4-4-4-4------------------|  |-4-4-4-4----------------------------------|

e|--------------------|  |-----------------------------------|
b|--------------------|  |-----------------------------------|
g|-6h9p6h9--8h11p8h11-|  |-----------------------------------|
D|--------------------|7x|-----------------------------------|
A|--------------------|  |-----------------------------------|
E|--------------------|  |-----------------------------------|
A|--------------------|  |-4-4-4--4-4-4--4-4-4--4-4-4--5-5-5-|

e|--------------------------------------------------------|  |
b|--------------------------------------------------------|  |
g|---------------------6h9p6h9---------6h9p6h9--8h11p8h11-|  |
D|-----------------------------5h8p5h8--------------------|4x|
A|--------------------------------------------------------|  |
E|--------------------------------------------------------|  |
A|4-4-4--4-4-4--4-4-4-------------------------------------|  |

e|------------------------------|--------------------------------|
b|------------------------------|--------------------------------|
g|------------------------------|--------------------------------|
D|------------------------------|--------------------------------|
A|----------------------6-2-7-9-|---------777777---------888888--|
E|----------------------6-2-7-9-|---5-7-8----------5-7-8---------|
A|-4-4-4--4-4-4--4-4-4--6-2-7-9-|-5--------------6---------------|

e|------------------------------------------------|  |----------|
b|------------------------------------------------|2x|----------|
g|------------------------------------------------|  |----------|
G|------------------------------------------------|4x|----------|
A|---------10-10-10-10-10-10----8888888---7777777-|  |---888888-|
E|---5-7-8--------------------5---------5---------|  |-5--------|
A|-7----------------------------------------------|  |----------|

e|---------|
b|---------|
g|---------|
D|---------|
A|-6-9-8-4-|
E|-6-9-8-4-|
A|-6-9-8-4-|
Tap to rate this tab
# A B C D E F G H I J K L M N O P Q R S T U V W X Y Z