Song name
# A B C D E F G H I J K L M N O P Q R S T U V W X Y Z

Divine Heresy - Facebreaker tab

intro
guitar 1
d|------------------------------------------------------------------- ||
a|------------------------------------------------------------------- ||
f|---------------------8h11p8---------------------------8h11p8------- ||
c|----------------------------7h10p7---------------------------7h10p7 ||
g|------------------------------------------------------------------- ||
d|------------------------------------------------------------------- ||
a|--4-4-4-4--4-4-4-4-------------------4-4-4-4--4-4-4-4-------------- ||
guitar 2
d|------------------------------------------------------------------- ||
a|------------------------------------------------------------------- ||
f|---------------------5h8p5---------------------------5h8p5--------- ||
c|---------------------------4h7p4---------------------------4h7p4--- ||
g|------------------------------------------------------------------- ||
d|------------------------------------------------------------------- ||
a|--4-4-4-4--4-4-4-4-----------------4-4-4-4--4-4-4-4---------------- ||
guitar 1
d|------------------------------------------------------------------- ||
a|-------------------------------------------------------9h12p9------ ||
f|--------------------8h11p8--------8h11p8--------8h11p8------------- ||
c|---------------------------7h10p7--------7h10p7-------------------- ||
g|------------------------------------------------------------------- ||
d|------------------------------------------------------------------- ||
a|--4-4-4-4--4-4-4-4------------------------------------------------- ||
guitar 2
d|------------------------------------------------------------------- ||
a|---------------------------------------------------6h9p6----------- ||
f|--------------------5h8p5--------5h8p5-------5h8p5----------------- ||
c|--------------------------4h7p4--------4h7p4----------------------- ||
g|------------------------------------------------------------------- ||
d|------------------------------------------------------------------- ||
a|--4-4-4-4--4-4-4-4------------------------------------------------- ||

d|-------------------------------------------------------------------------|
a|-------------------------------------------------------------------------|
f|-------------------------------------------------------------------------|
c|-------------------------------------------------------------------------|
g|-------------------------------------------------------------------------|
d|-------------------------------------------------------------------------|
a|--4-4-4--4-4-4--4-4-4--4-4-4---5-5-5-5-5--5-5-5-5-5---4-4-4--4-4-4--4-4-4|
guitar 1
d|------------------------------|
a|-----------------------9h12p9-|
f|--8h11p8--------8h11p8--------|
c|---------7h10p7---------------|
g|------------------------------|
d|------------------------------|
a|------------------------------|
guitar 2
d|------------------------------|
a|---------------------6h9p6----|
f|--5h8p5-------5h8p5-----------|
c|--------4h7p4-----------------|
g|------------------------------|
d|------------------------------|
a|------------------------------|

d|-----------------------------------------------|
a|-----------------------------------------------|
f|-----------------------------------------------|
c|-----------------------------------------------|
g|-----------------------------------------------|
d|-----------------------------------------------|
a|--4-4-4--4-4-4--4-4-4--4-4-4--8-8-8-8--8-8-8-8-|
guitar 1
d|-------------------------------|
a|----------------------9h12p9---|
f|--8h11p8-------8h11p8----------|
c|---------7h10p7----------------|
g|-------------------------------|
d|-------------------------------|
a|-------------------------------|
guitar 2
d|-----------------------------|
a|--------------------6h9p6----|
f|--5h8p5-------5h8p5----------|
c|--------4h7p4----------------|
g|-----------------------------|
d|-----------------------------|
a|-----------------------------|

d|------------------------------------------------------------------------|
a|------------------------------------------------------------------------|
f|------------------------------------------------------------------------|
c|------------------------------------------------------------------------|
g|------------------------------------------------------------------------|
d|------------------------------------------------------------------------|
a|--4-4--4---4-4--4---4-4--4---5-5-5-5--5-5-5-5--4-4--4---4-4--4---4-4--4-|

d|----------------|
a|----------------|
f|----------------|
c|----------------|
g|-7-----7--9-----|
d|-5--6--5--7-----|
a|----4-----------|

d|--------------------------------------------------------------------|
a|--------------------------------------------------------------------|
f|--------------------------------------------------------------------|
c|--------------------------------------------------------------------|
g|--------------------------------------------------------------------|
d|--------------------------------------------------------------------|
a|--4-4-4--4-4-4--4-4-4--4-4-4--8-8-8-8--8-8-8-8--4-4-4--4-4-4--4-4-4-|
guitar 1
d|------------------------------|
a|-----------------------9h12p9-|
f|--8h11p8--------8h11p8--------|
c|---------7h10p7---------------|
g|------------------------------|
d|------------------------------|
a|------------------------------|
guitar 2
d|------------------------------|
a|--------------------6h9p6-----|
f|--5h8p5-------5h8p5-----------|
c|--------4h7p4-----------------|
g|------------------------------|
d|------------------------------|
a|------------------------------|
chorus/extended
d|----------------------------------------------------------|
a|----------------------------------------------------------|
f|----------------------------------------------------------|
c|------------------------------4-4-4-4-4-4-4-4-4-4-4-4-4-4-|
g|----2-2-2-2--4-4-4-4--5-5-5-5-----------------------------|
d|----------------------------------------------------------|
a|--0-------------------------------------------------------|

d|----------------------------------------------------------|
a|----------------------------------------------------------|
f|----------------------------------------------------------|
c|------------------------------5-5-5-5-5-5-5-5-5-5-5-5-5-5-|
g|----2-2-2-2--4-4-4-4--5-5-5-5-----------------------------|
d|----------------------------------------------------------|
a|--2-------------------------------------------------------|

d|----------------------------------------------------------|
a|----------------------------------------------------------|
f|----------------------------------------------------------|
c|------------------------------7-7-7-7-7-7-7-7-7-7-7-7-7-7-|
g|----2-2-2-2--4-4-4-4--5-5-5-5-----------------------------|
d|----------------------------------------------------------|
a|--3-------------------------------------------------------|

d|----------------------------------------------------------------|
a|----------------------------------------------------------------|
f|----------------------------------------------------------------|
c|----------------------------------------------------------------|
g|----7-7-7-7-7-7-7-7-7-7----5-5-5-5-5-5-5-5----7-7-7-7-7-7-7-7-7-|
d|----------------------------------------------------------------|
a|--5----------------------3------------------5-------------------|

d|-----------|
a|-----------|
f|-----------|
c|-----------|
g|-----------|
d|--7-10-9-7-|
a|--5-8--7-5-|
bridge
d|------------------------------------------------------------------------|
a|------------------------------------------------------------------------|
f|------------------------------------------------------------------------|
c|------------------------------------------------------------------------|
g|------------------------------------------------------------------------|
d|--3-3-3-3--2-2-2-2-2-2-2--3-3-3-3--1-1-1-1-1-1-1--3-3-3-3--2-2-2-2-2-2--|
a|------------------------------------------------------------------------|

d|-------------------------|------------------|------------------------|
a|-------------------------|------------------|------------------------|
f|-------------------------|------------------|------------------------|
c|-------------------------|------------------|------------------------|
g|-------------------------|------------------|------------------------|
d|--3-3-3-3--1-1-1-1-1-1-1-|-3-3-3-3--1-1-1-1-|-3-3-3-3--2-2-2-2-2-2-2-|
a|-------------------------|------------------|------------------------|

d|------------------------------------------------------------------------|
a|------------------------------------------------------------------------|
f|------------------------------------------------------------------------|
c|------------------------------------------------------------------------|
g|------------------------------------------------------------------------|
d|-3-3-3-3--1-1-1-1-1-1-1-1--3-3-3-3--6-6-6-6-6-6--5-5-5-5--3-3-3-3-3-3-3-|
a|------------------------------------------------------------------------|
guitar 1 solo
d|----------------------------------------------------------------------|
a|----------------------------------------------------17p15h17p15h17p15-|
f|--15-14~--15-13~--15-14~--15-13~--15h18p15h18p15h18-------------------|
c|----------------------------------------------------------------------|
g|----------------------------------------------------------------------|
d|----------------------------------------------------------------------|
a|----------------------------------------------------------------------|

d|-----------------------------------------------15p12h15p12h15p12-|
a|---------------14-13~--------14h18p14h18p14h18-------------------|
f|-15-14~-15-13~--------14-15~-------------------------------------|
c|-----------------------------------------------------------------|
g|-----------------------------------------------------------------|
d|-----------------------------------------------------------------|
a|-----------------------------------------------------------------|

d|/15-15-15-15-14-14-14-14-14-14-14-14-15-15-15-15-12-12-12-12-12-12-12-12-|
a|-------------------------------------------------------------------------|
f|-------------------------------------------------------------------------|
c|-------------------------------------------------------------------------|
g|-------------------------------------------------------------------------|
d|-------------------------------------------------------------------------|
a|-------------------------------------------------------------------------|

d|-15-15-15-15-------------------------15-15-15-15-------------------------|
a|-------------14-14-14-14-14-14-14-14-------------13-13-13-13-13-13-13-13-|
f|-------------------------------------------------------------------------|
c|-------------------------------------------------------------------------|
g|-------------------------------------------------------------------------|
d|-------------------------------------------------------------------------|
a|-------------------------------------------------------------------------|

d|--------------------------|-------------------------------------|
a|----13h14p13----13--17~AH-|----------13h16p13----------13h16p13-|
f|-14----------14-----------|-14h17p14----------14h17p14----------|
c|--------------------------|-------------------------------------|
g|--------------------------|-------------------------------------|
d|--------------------------|-------------------------------------|
a|--------------------------|-------------------------------------|

d|-11h14p11----------11h14p11-14h17p14-|-18-18-18-18-17-17-18-18-21-21-21-21-|
a|----------13h16p13-------------------|-------------------------------------|
f|-------------------------------------|-------------------------------------|
c|-------------------------------------|-------------------------------------|
g|-------------------------------------|-------------------------------------|
d|-------------------------------------|-------------------------------------|
a|-------------------------------------|-------------------------------------|

d|-20-20-21-21--24b-|
a|------------------|
f|------------------|
c|------------------|
g|------------------|
d|------------------|
a|------------------|
guitar 1
d|---------------------------------------------|
a|---------------------------------------------|
f|---------------------------------------------|
c|-----------------------------4-4-4-4-4-4-4-4-|
g|---2-2-2-2--4-4-4-4--5-5-5-5-----------------|
d|---------------------------------------------|
a|-0-------------------------------------------|
guitar 2
d|---------------------------------------------|
a|---------------------------------------------|
f|---------------------------------------------|
c|---------------------------------------------|
g|-2-------------------------------------------|
d|-2-------------------------------------------|
a|-0-------------------------------------------|
guitar 1
d|---------------------------------------------|
a|---------------------------------------------|
f|---------------------------------------------|
c|-----------------------------5-5-5-5-5-5-5-5-|
g|---2-2-2-2--4-4-4-4--5-5-5-5-----------------|
d|---------------------------------------------|
a|-2-------------------------------------------|
guitar 2
d|--------------------------------------------|
a|--------------------------------------------|
f|--------------------------------------------|
c|--------------------------------------------|
g|-4------------------------------------------|
d|-4------------------------------------------|
a|-2------------------------------------------|
guitar 1
d|---------------------------------------------|
a|---------------------------------------------|
f|---------------------------------------------|
c|-----------------------------7-7-7-7-7-7-7-7-|
g|---2-2-2-2--4-4-4-4--5-5-5-5-----------------|
d|---------------------------------------------|
a|-3-------------------------------------------|
guitar 2
d|---------------------------------------------|
a|---------------------------------------------|
f|---------------------------------------------|
c|---------------------------------------------|
g|-5-------------------------------------------|
d|-5-------------------------------------------|
a|-3-------------------------------------------|
guitar 1
d|-----------------------------------|
a|-----------------------------------|
f|-----------------------------------|
c|-----------------------------------|
g|---7-7-7-7-7-7-7----5-5-5-5-5-5-5--|
d|-----------------------------------|
a|-5----------------3----------------|

d|-----------------------------------|
a|-----------------------------------|
f|-----------------------------------|
c|-----------------------------------|
g|-7----------------5----------------|
d|-7----------------5----------------|
a|-5----------------3----------------|
both guitars
d|------------------------------------------------------------------------|
a|------------------------------------------------------------------------|
f|------------------------------------------------------------------------|
c|-----------------------------4-4-4-4-4-4-4------------------------------|
g|---2-2-2-2--4-4-4-4--5-5-5-5------------------2-2-2-2--4-4-4-4--5-5-5-5-|
d|------------------------------------------------------------------------|
a|-0------------------------------------------2---------------------------|

d|----------------------------------------------------------|
a|----------------------------------------------------------|
f|----------------------------------------------------------|
c|-5-5-5-5-5-5-5------------------------------7-7-7-7-7-7-7-|
g|------------------2-2-2-2--4-4-4-4--5-5-5-5---------------|
d|----------------------------------------------------------|
a|----------------3-----------------------------------------|

d|-------------------------|
a|-------------------------|
f|-------------------------|
c|-------------------------|
g|---7-7-7-7-7---5-5-5-5-5-|
d|-------------------------|
a|-5-----------3-----------|

d|-------------------------------------------------|
a|-------------------------------------------------|
f|-------------------------------------------------|
c|-------------------------------------------------|
g|---2-2-2-2--4-4-4-4--5-5-5-5---------------------|
d|-----------------------------2-2-2--2-2-2--2-2-2-|
a|-0-----------------------------------------------|

d|-------------------------------------------------|
a|-------------------------------------------------|
f|-------------------------------------------------|
c|-------------------------------------------------|
g|---2-2-2-2--4-4-4-4-5-5-5-5----------------------|
d|----------------------------3-3-3--3-3-3--3-3-3--|
a|-2-----------------------------------------------|

d|-------------------------------------------------|
a|-------------------------------------------------|
f|-------------------------------------------------|
c|-------------------------------------------------|
g|---2-2-2-2--4-4-4-4-5-5-5-5----------------------|
d|----------------------------5-5-5--5-5-5--5-5-5--|
a|-3-----------------------------------------------|

d|-------------------------------------------------------|
a|-------------------------------------------------------|
f|-------------------------------------------------------|
c|-------------------------------------------------------|
g|---7-7-7-7-7---5-5-5-5-5-5----7-7-7-7-7----------------|
d|----------------------------------------------7-10-9-7-|
a|-5-----------3--------------5-----------------5-8--7-5-|
Tap to rate this tab
# A B C D E F G H I J K L M N O P Q R S T U V W X Y Z