Song name
# A B C D E F G H I J K L M N O P Q R S T U V W X Y Z

Divine Heresy - Bleed The Fifth tab

------------------------------------------------------------------------|
-13/-17/--14/--18/--17/--20/--18/----17-18-17----17---------------------|
----------------------------------------------19----19-18---------------|
------------------------------------------------------------------------|
------------------------------------------------------------------------|
------------------------------------------------------------------------|
slides with trem picking

----5-8-5-4-5-4---4--------------------------------------------------------|
----------------7---7-5-7-5-4-5-4---4--------------------------------------|
----------------------------------6---6-5-6-5---5---------4----------------|
----------------------------------------------7---7-6-4-6---6-4-6----------|
---------------------------------------------------------------------------|
---------------------------------------------------------------------------|


-19*-18----19*-17----19*-16------------------------------------------------|
-----------------------------9*-17----19*-15----19*-16----19*-14----19*-13-|
---------------------------------------------------------------------------|
---------------------------------------------------------------------------|
---------------------------------------------------------------------------|
---------------------------------------------------------------------------|
*tapping

--------------------------------------------------------------------------|
------------14-16-----------14-16-----------14-16-17-19-------14-16-17-19-|
---13-14-16--------13-14-16-----------14-16-------------14-16-------------|
--------------------------------------------------------------------------|
--------------------------------------------------------------------------|
--------------------------------------------------------------------------|
                                      this bit not sure    
                  
----------12-14-16---------12-14-16---------------16-19-19b-------|
-12-14-16----------12-14-16-------------16-17-19------------------|
------------------------------------------------------------------|
------------------------------------------------------------------|
------------------------------------------------------------------|
------------------------------------------------------------------|
Tap to rate this tab
 
# A B C D E F G H I J K L M N O P Q R S T U V W X Y Z