Song name
# A B C D E F G H I J K L M N O P Q R S T U V W X Y Z

Divinyls - I Touch Myself Acoustic tab

Verse 1

e----444-------6666-------777-------9--9--9--9----| (before chorus play last note
B----444-------7777-------777-------9--9--9--9 16-| times)
G----666-SLIDE-8888-------888-SLIDE-10-10-10-10---|
D----666-------8888-------999-------11-11-11-11---|
A----444-------6666-------999-------11-11-11-11---|
E----444-------6666-------777-------9--9--9--9----|

I love myself...

Chorus

e----22--444--22222-------22--444--2222-2--|
B----22--444--22222-------22--444--2222-2--|
G----44--666--22222-------44--666--2222-4--|
D----44--666--44444-[X 2]-44--666--4444-4--| [Let ring]
A----22--444--44444-------22--444--4444-2--|
E----22--444--22222-------22--444--2222-2--|

I dont want anybody else...

Verse 2

e----4-4-4-4-------7-7-7-7-------9--9--9--9--------12-12-12-12-|
B----4-4-4-4-------7-7-7-7-------9--9--9--9--------12-12-12-12-|
G----6-6-6-6-SLIDE-9-9-9-9-SLIDE-11-11-11-11-SLIDE-14-14-14-14-|
D----6-6-6-6-------9-9-9-9-------11-11-11-11-------14-14-14-14-|
A----4-4-4-4-------7-7-7-7-------9--9--9--9--------12-12-12-12-|
E----4-4-4-4-------7-7-7-7-------9--9--9--9--------12-12-12-12-|

You're the one...


e----444-------6666-------777-------9--9--9--9----| (before chorus play last note
B----444-------7777-------777-------9--9--9--9 16-| times)
G----666-SLIDE-8888-------888-SLIDE-10-10-10-10---|
D----666-------8888-------999-------11-11-11-11---|
A----444-------6666-------999-------11-11-11-11---|
E----444-------6666-------777-------9--9--9--9----|

I close my eyes...

Reapeat chorus [X2]

END
Tap to rate this tab
 
# A B C D E F G H I J K L M N O P Q R S T U V W X Y Z