Song name
# A B C D E F G H I J K L M N O P Q R S T U V W X Y Z

Division Minuscula - Control tab

Help us improve GuitareTab! Take a short survey!
Divisin Minscula
Control(TAB) Enviado por PACHECO
AUTOR: Division Minuscula
ALBUM: Sirenas dmin0283

INTRO:
(SIRENAS)

----------------------------------*------------------------|
-----6-----6----------4-----6-----*-----6-----6---6--------|
-------------8-6--------------8-6-*------------------------|
-8-8---8-8--------6-6---6-6-------*-8-8---8-8---8----------|
----------------------------------*------------------------|
----------------------------------*------------------------|

ESTO SE REPITE 3 VECES Y DSPS DEL        ↑ 2 VECES ↑
TERCERO VA LO SIGUIENTE--------------►


VERSO:

-----------------------------------------------------------|
---5----5-5----3----3-3----5----5-5----3-------------------|
---6----6-6----4----4-4----6----6-6----4--2----------------|
---4----4-4----2----2-2----4----4-4----2--4----------------|
---6----6-6----4----4-4----6----6-6----4--4----------------|
-4----4------2----2------4----4------2----2----------------|

Voy a tomar el control de esta misin otra vez,
atencin tripulacin: tomen sus puestos.
No he regresado hasta aqu
con sueos de salvacin,
no pienso salvarme a m,
creo que a ti...

(AKI CAMBIA PARA LLEGAR AL CORO)


   ... ME  NO  OOOOOOOOOOOOOS
----------------------------------------------------------|
----------------------------------------------------------|
----------------------------------------------------------|
-------4---3---4444444444444------------------------------|
-------4---3---4444444444444------------------------------|
-------2---1---2222222222222------------------------------|

(Haber, quiero escuchar esas voces contra la culpa)

SE REPITE LO DEL VERSO:

Oh oh oh oh oh...
(Yeah!)
Oh oh oh oh oooh...
(OK...)

SE TOCA LO DEL VERSO COMO AL PRINCIPIO:

Todos quieren preguntar,
pero nadie quiere saber,
es tan dificil pensar en estos tiempos
donde tu televisin es la palabra de Dios,
siento que voy a morir en el in...

   ... ten to  oooooooooooo...

----------------------------------------------------------|
----------------------------------------------------------|
----------------------------------------------------------|
-------4---3---4444444444444------------------------------|
-------4---3---4444444444444------------------------------|
-------2---1---2222222222222------------------------------|


Uh uh


DESPUES SE TOCA ESTO:   (CORO)

-----------------------------------------------------------|
-----------------------------------------------------------|
-----------------------------------------------------------|
-6666666-4444444-6666666-4444444-8888888-6666666-4444444---|
-6666666-4444444-6666666-4444444-8888888-6666666-4444444---|
-4444444-2222222-4444444-2222222-6666666-4444444-2222222---|

------------------------------------------------------------------|
------------------------------------------------------------------|
------------------------------------------------------------------|
-6666666-8-→------------------------------------------------|
-6666666-8-→------------------------------------------------|
-4444444-6-→------------------------------------------------|

(Oh oh oh)
Detrs de lo que puedes ver,
(Oh oh oh)
detrs de lo que hoy puedes oir
desde aqu nunca has dispuesto a morir,
todo lo que crees est mal,
est mal, est mal.

(LO DE ARRIBA LLEGA HASTA AKI↑↑↑↑)

DSPS C TOKA ESTO, ES LO MISMO A LO DEL VERSO Y LO VAS REPITIENDO
VARIAS VECES Y LLEGA HASTA A DONDE DICE:SEMBRAR EL TERROR

-----------------------------------------------------------|
---5----5-5----3----3-3----5----5-5----3-------------------|
---6----6-6----4----4-4----6----6-6----4--2----------------|
---4----4-4----2----2-2----4----4-4----2--4----------------|
---6----6-6----4----4-4----6----6-6----4--4----------------|
-4----4------2----2------4----4------2----2----------------|

Voy a tomar el control de esta misin otra vez,
voy a tomar el control de esta misin otra vez,
voy a tomar el control de esta misin otra vez,
voy a tomar el control, voy a tomar el control.


Aqu en nuestra habitacin,
aqu no hay cuadro de honor,
tan slo sueos de ayer
y realidades de hoy.
Y precisamente hoy
tampoco veo anochecer,
apenas caiga este sol
saldr a sembrar el...

       ...terror
------------------------------------------------------------|
------------------------------------------------------------|
------------------------------------------------------------|
-4---3---4444444444444--------------------------------------|
-4---3---4444444444444--------------------------------------|
-2---1---2222222222222--------------------------------------|

LO DEL CORO::::

(Oh oh oh)
Detrs de lo que puedes ver,
(Oh oh oh)
detrs de lo que hoy puedes oir
desde aqu nunca has dispuesto a morir,
todo lo que crees est mal,
est mal...


SE REPITE EL CORO:
Te digo:


(Oh oh oh)
Detrs de lo que puedes ver,
(Oh oh oh)
detrs de lo que hoy puedes oir
desde aqu nunca has dispuesto a morir,
todo lo que crees est mal,
est mal, est mal.

-----SE TOKA EL INTRO------

Oh oh oh oh oh
Oh oh oh oh oooh.......
Detrs de lo que puedes ver,
(Oh oh oh)
detrs de lo que hoy puedes oir
desde aqu nunca has dispuesto a morir,
todo lo que crees est mal,
est mal...
Te digo:
(Oh oh oh)
Detrs de lo que puedes ver,
(Oh oh oh)
detrs de lo que hoy puedes oir
desde aqu nunca has dispuesto a morir,
todo lo que crees est mal,
est mal, est mal.

                  DATO: EL INTRO TAMBN SE TOKA DE FONDO EN
                             EL CORO


VA PUES LOS DEJO CON ESTA ROLA Q COMO NO LA ENCONTRABA EN TAB Y
PS DECIDI SACARLA, A! Y NO SEAN GACHOS ES MI PRIMER TAB
JEJE BUENO BYE    :::::TE AMO KARLA:::::
Related for Control tab