Song name
# A B C D E F G H I J K L M N O P Q R S T U V W X Y Z

Division Minuscula - Cursi tab

Intro.

 Guitarra 1

 e|---------------------|
 B|---------------------|
 G|-------0-0-----------|
 D|-3---3-----3---------|       Se repite 2 veces
 A|---3---------3-1-0-3-|
 E|---------------------|

Guitarra 2 entra con el requinto
antes de que acabe el primer bajeo,
luego lo mismo con el segundo bajeo.


Guitarra 2


 e|-13-12-10----------------|-13-12-10-------------|
 B|----------13-10-11-13----|----------13-10-11-13-|
 G|----------------------10-|----------------------|
 D|-------------------------|----------------------|
 A|-------------------------|----------------------|
 E|-------------------------|----------------------|

  F (guitarra 1 arpegiando)
----------------------------|-----------------------|
-------10----10-11-10-11-10-|--------10----10-11-10-|
-10-10----10----------------|-10-10-----10----------|
----------------------------|-----------------------|
----------------------------|-----------------------|
----------------------------|-----------------------|

                         A# Guitarra 1 (arpegiando)
----------------------|----------------------|
-------10----10-11-10-|-13-11-10----10-11-10-|
-10-10----10----------|----------10----------|
----------------------|----------------------|
----------------------|----------------------|
----------------------|----------------------|

  A# (gitarra 1 arpegiando)
----------------------|----------------------|
-------10----10-11-10-|-------10----10-11-10-|
-10-10----10----------|-10-10----10----------|
----------------------|----------------------|
----------------------|----------------------|
----------------------|----------------------|

                             A# Guitarra 1 (arpegiando)
 e|----------------------|----------------------|
 B|-------10----10-11-10-|-13-11-10----10-11-13-|
 G|-10-10----10----------|----------10----------|
 D|----------------------|----------------------|
 A|----------------------|----------------------|
 E|----------------------|----------------------|

 Y luego empieza el rasgueo con guitarra 1
 y arpegio guitarra 2, con los acordes:

  F                A#           F
 Acaso es mucho pedirte una razón
         A#             Dm
 cuando sabes que eres tú,
         C             A#
 la que tiene mi corazón.
 F                      A#          F
 Explicame por que no puedo ni hablar,
      A#          Dm
 y me pones a temblar
       C                  A#
 cada vez que estás cerca de mí.

 Dm      C         A#
 No lo puedo resistir,
          C                 F
 mira lo que me haces escribir...


 A#              F
 Y no se que decir,
 A#              F
 y no se que hacer,
 A#            DM          C           A#
 para que te puedas dar cuenta de que yo...
  C             F
 estoy frente a tí.


  F                A#           F
 Acaso es mucho escribirte esta canción
         A#             Dm
 pues para mí no es tan común
       C             A#
 estar en esta situación.
 F                A#           F
 Si tan solo no fueras tan especial
         A#             Dm
 y yo no tan informal tal vez
       C             A#
 me acercaría a tí.
 Dm      C         A#
 Yo me siento tan cursi,
          C                 F
 mira lo que me haces escribir...

  A#              F
 Y no se que decir
 A#              F
 y no se que hacer
 A#            DM          C           A#
 para que te puedas dar cuenta de que yo...
  C             F
 estoy frente a tí.


 Aquí la guitarra 1 sigue con rasgueo en F y A#
  y guitarra 2 hace el requinto.



 e|-------------------------------|-----------|
 B|-6-6-5-6-8-6-5-6-6-5-6-8-6-5-6-|-1(x5)-----|
 G|-------------------------------|-------3---|
 D|-------------------------------|-----------|
 A|-------------------------------|-----------|
 E|-------------------------------|-----------|


 e|---------------------------|
 B|-3-3-3-3-3-3-2-0--0-2-0----|
 G|-----------------3------3*-|
 D|---------------------------|
 A|---------------------------|
 E|---------------------------|


 Luego sigue guitarra 1 con rasgueo y guitarra 2 con arpegio.


 A#            F
 Y no se que decir
 A#            F
 y no se que hacer
  A#          Dm           C            A#
 para que te puedas dar cuenta de que yo...


  A#            F
 Y no se que decir
  A#            F
 y no se que hacer
  A#          Dm          C            F
 para que te puedas dar cuenta de que yo...

 (Aquí con mucho sentimiento y todo el caché)

    C            F     A#     F (arpegiado)
 estoy frente a tí.
Tap to rate this tab
# A B C D E F G H I J K L M N O P Q R S T U V W X Y Z