Song name
# A B C D E F G H I J K L M N O P Q R S T U V W X Y Z

Division Of Idris - By A Long Way tab

max_the_coffee_bean@hotmail.com

the song is gonna sound really pants unless uve heard me play this which isnt very
likely bcos u ont get the rythm and its 2 hard to write down

intro

e-5-2-0-1-0----|
B-5-3-1-1-1----|
G-2-2-2-2-2----|   x2
D-2-0-3-3-0----|
A---------3----|
E---------3----|


verse

e---------------------------------------------------|
B---------------------------------------------------|
G--------------------------------------999----------|
D-99-xxxxxxxx-99-xxxxxxxx-1212-xxxxxxxx999-xxxxxxxx-|
A-99-xxxxxxxx-99-xxxxxxxx-1212-xxxxxxxx777-xxxxxxxx-|
E-77-xxxxxxxx-77-xxxxxxxx-1010-xxxxxxxx----xxxxxxxx-|

chorus  > = slide

e----------------------|
B-----777-5555555>>>>--|
G-666-777-5555555>>>>9-|
D-777-777-5555555>>>>9-|
A-777-555-3333333>>>>7-|
E-555------------------|
Tap to rate this tab
# A B C D E F G H I J K L M N O P Q R S T U V W X Y Z