Song name
# A B C D E F G H I J K L M N O P Q R S T U V W X Y Z

Divit - Driver tab

|--------------------------------------------------------------------------|
			     DRIVER by DIVIT
|--------------------------------------------------------------------------|
Tabbed by: Navin
Email:nitroboy158@hotmail.com
Record sites: www.nitrorecords.com
Band site: http://www.purevolume.com/divit

Tuning: Drop D

INTRO

e|---------------------------------|
B|---------------------------------|
G|---------------------------------|
D|-4-----7-----0-----4-----7-----0-|
A|-4-----7-----0-----4-----7-----0-|
D|-4-----7-----0-----4-----7-----0-|
   x8    x8    x16   x8    x8    x16

(clean)
e|-----5------9-------|
B|---7-----10-------5-|
G|-6-----9--------2---|X4
D|--------------0-----|
A|--------------------|
D|--------------------|
Is this as good as it can get...

e|---------------------------------|
B|---------------------------------|
G|---------------------------------|
D|-4-----7-----0-----4-----7-----0-|
A|-4-----7-----0-----4-----7-----0-|
D|-4-----7-----0-----4-----7-----0-|
   x8    x8    x16   x8    x8    x16

(clean)
e|-----5------9-------|
B|---7-----10-------5-|
G|-6-----9--------2---|X4
D|--------------0-----|
A|--------------------|
D|--------------------|
You promised me a million things...


CHORUS
---------------------------------------------------------------------------|

e|----------------------------------------------------------------|
B|----------------------------------------------------------------|
G|----------------------------------------------9-9-9-----9-9-9---|
D|-4-4---4-2-2---2--7-----4-----2-----7-----4-4-9-9-9-2-2-9-9-9-7-|
A|-4-4---4-2-2---2--7-----4-----2-----7-----4-4-7-7-7-2-2-7-7-7-7-|
D|-4-4---4-2-2---2--7-----4-----2-----7-----4-4-------2-2-------7-|
		    x16   x8    x8    x16                           x16
Turn it over don't look past your shoulder...

e|---------------------------------------|
B|---------------------------------------|
G|---------------------------------------|
D|-4-----2-----7-----4-4---4-2-2---2---0-|
A|-4-----2-----7-----4-4---4-2-2---2---0-|
D|-4-----2-----7-----4-4---4-2-2---2---0-|
   x8    x8    x16
An overdue disaster...

---------------------------------------------------------------------------|


e|-----------------------------------------------------------|
B|-----------------------------------------------------------|
G|-11-11-11-11-9-11-11-11-11-9-11-11-11-11-11-11-11-11-9-9-9-|X2
D|-----------------------------------------------------------|
A|-9--9--9--9--7-9--9--9--9--7-9--9--9--9--9--9--9--9--7-7-7-|
D|-----------------------------------------------------------|
Let's pretend we're in the movies

e|----------------------------------------------|
B|----------------------------------------------|
G|-1111-111111-11--99-999-9--77-777-7--77-777-7-|
D|----------------------------------------------|
A|-9-9--9-9-9--9---77-777-7--55-555-5--55-555-5-|
D|----------------------------------------------|
An on the run romance story

(Back to chorus)
Tap to rate this tab
# A B C D E F G H I J K L M N O P Q R S T U V W X Y Z