Song name
# A B C D E F G H I J K L M N O P Q R S T U V W X Y Z

Divlje Jagode - Oluja chords

Highlighted       Show chord diagrams
-------------------------------------------------------------------------------
			     oluja - Divlje Jagode
-------------------------------------------------------------------------------
Tabbed by:krunoslavk
E-mail : krunoslavk@net.hr
Tuning:

e|---------------------------------------------------------------------------|
B|--12-----10-----8------3------5--------------------------------------------|
G|--11-----9------7------2------4------5-------------------------------------|
D|--9------7------5------0------2------5-------------------------------------|
A|--9------7------5------0------2------3-------------------------------------|
D|--9------7------5------0------2--------------------------------------------|
     
    B5     A5     G5     D5     E5     C5     


B5                      A5    
        Istok , zapad , sjever i jug
G5                  A5  
        Zovu putevi cujem im glas
B5                     A5   
        Biti putnik je zacaran krug
G5                     A5
        Svaka cesta mi donosi spas

        B5  	A5
        Putujem ja
              G5  A5
        Uvjek bez kofera
        B5      A5
        Putujem sam
            G5      A5    B5
        Iza sebe ja ne gledam

D5         E5	 G5    A5 
        Dolazi oluja
D5         E5
        Nosi me
C5         A5
        Ko zna gdje
D5         E5    G5    A5
        Dolazi oluja
D5         E5         C5 E5
        Ljubav s njom    umire  
(dalje se ponavlja :))

        Ispod zvjezda jedan je put

        Svako od nas bira ga sam

        Vatre gore na obali

        Ja vise nemam sta da ti dam


        Putujem ja

        Uvjek bez kofera

        Putujem sam

        Iza sebe ja ne gledam


        Dolazi oluja

        Nosi me

        Ko zna gdje


        Dolazi oluja

        Ljubav s njom umire


| /  slide up
| \  slide down
| h  hammer-on
| p  pull-off
| ~  vibrato
| +  harmonic
| x  Mute note
===============================================================================
Tap to rate this tab
# A B C D E F G H I J K L M N O P Q R S T U V W X Y Z