Song name
# A B C D E F G H I J K L M N O P Q R S T U V W X Y Z

Divlje Jagode - Nenism Ja tab

transcription:igoruk

song:ne,nisam ja

band:Divlje Jagode

intro:

first solo:

Am-F-C-D-G

e|---------------------12-13--12-13-15-15-13-12------------12---------------|
B|---------12-13--15-------------------------------15-13-15------13-12------|
G|-----14-------------------------------------------------------------------|
D|--------------------------------------------------------------------------|
A|--------------------------------------------------------------------------|
E|--------------------------------------------------------------------------|

Am-F-C-D-G

e|---------------------12-13--12-13-15-15-13-12-------15--------------------|
B|---------12-13--15-------------------------------15-13----13-12-----------|
G|-----14-------------------------------------------------------------14----|
D|--------------------------------------------------------------------------|
A|--------------------------------------------------------------------------|
E|--------------------------------------------------------------------------|



Am       C   Dm   F     Am
Mjesecina se plava rasula
    Dm          C       Dm   Am
u tvoju sobu je ljubav udahnula
blaga svjetlost je suzu otkrila
u oku tvom se njeznost sakrila

Dm                            B
sto se u oku tvom njezno sakrila.

Refren:

Am        C     G     F       Am
Ne, nisam ja uzrok tvojim suzama
Am           C    F         C
sve je skrivila pjesma lagana.

Am        C   G     Dm      Am
Ne, nisam ja uzrok tvojim suzama
Am       C Dm     G       F
sve je skrivila pjesma lagana.

Solo: Am C G F Am
      Am C F C C

e|---------------------------------------12-12--------------12---13---------|
B|----------------------------------------------15-13-12-15---12------------|
G|-----------------------------------14-------------------------------------|
D|---------------------------2----------------------------------------------|
A|-------3-5-7-5-3-5-3-5---3------------------------------------------------|
E|-----5------------------------5-------------------------------------------|


e|-----12-15-12-13--12-13-12----------15-------20--19-----------------------|
B|------------------------------13------13-------17---------17-12-15-12-13--|
G|---------------------------------12---------------------------------------|
D|--------------------------------------------------------------------------|
A|--------------------------------------------------------------------------|
E|--------------------------------------------------------------------------|


e|---------------12---------------------------------------------------------|
B|-----12----15----13------------10---8-10---6-5----------------------------|
G|--------14-----------14----7-9----9------9------7-4-----------------------|
D|-----------------------------------------------------5-7------------------|
A|--------------------------------------------------------------------------|
E|--------------------------------------------------------------------------|



U sobi plavog sna drhtis usnama
dok pricas sjenama svoja sjecanja
u sobi plavog sna brises prstima
suzu sto se je nocas predala
sto se u oku tvom njezno predala

Refren:
end:

Am     C  Dm      G     FE  D C  G
sve je skrivila pjesma lagana.
           Am
Ne, nisam ja
Tap to rate this tab
 
# A B C D E F G H I J K L M N O P Q R S T U V W X Y Z