Song name
# A B C D E F G H I J K L M N O P Q R S T U V W X Y Z

Divlje Jagode - Kap Po Kap tab

Divlje Jagode
KAP PO KAP


e-12-10----10-----10-12-8h10p8-7-5--3-5-3-5-7-8--7-8-7-8-10-12-----------|
h-------13-----13--------------------------------------------------------|
g------------------------------------------------------------------------|
d------------------------------------------------------------------------|
a------------------------------------------------------------------------|
E------------------------------------------------------------------------|

e-12-10----10-----10-12-8h10p8-7-5--3-5-3-5-7-8--7-8-10-7h8p7h8p7--------|
h-------13-----13-------------------------------------------------10-----|
g------------------------------------------------------------------------|
d------------------------------------------------------------------------|
a------------------------------------------------------------------------|
E------------------------------------------------------------------------|

Am                       G         Am
Jednom kad sretnes me to necu biti ja
Am                G          Am
vec samo uspomene mrve sjecanja.
C           G   Dm         Am
Samo prazna bol sad je ostala
C      G           Dm
prazna bol od kajanja.

E              F
I sta radis ti nije vazno mi
G            C         E
tek kisa jesenja podsjeca.

Am     F   C           G
Kap po kap kisa sprema se
        Am         F      C         G
samo da znas nisam lud da mislim na tebe.
Am          F   C        G
Kap, kap po kap opet padace
        F        Am
te duge kise jesenje.

Jednom kad dani ovi fino posive
ne zovi mene ti i ne trazi me.
Hladno srce meni dala si
hladno srce ostavi.

I s kim sada si nije vazno mi
tek kisa jesenja podsjeca.

Kap po kap kisa sprema se
samo da znas nisam lud da mislim na tebe.
Kap, kap po kap opet padace
te duge kise jesenje.
Tap to rate this tab
# A B C D E F G H I J K L M N O P Q R S T U V W X Y Z