Song name
# A B C D E F G H I J K L M N O P Q R S T U V W X Y Z

Divlje Jagode - Krivo Je More tab

 G             Am
 Ti, ti si ga upoznala
  C             G
 jedne ljetnje veceri
 G           Am
 On, on te poljubio
  C         G
 dok more se pjenilo

    e|-------------------------------|
    B|-------------------------------|
    G|-------------------------------|
    D|-------------------------------|
    A|-----5--7-------------------5--|
    E|--7----------------------------|
               ... i ti si se zaljubila..

    e|---------------------------------|
    B|---------------------------------|
    G|---------------------------------|
    D|--4h5p4--------------------------|
    A|---------5-7------------------5--|
    E|---------------------------------|
               ... mada nisi htjela to...

    e|---------------------------|
    B|---------------------------|
    G|---------------------------|
    D|--4h5p4--------------------|
    A|---------5-3----------(10)-|
    E|---------------------------|
               ... krivo je more..

  Em           D
 (I ti si se zaljubila
  Em               D
 mada nisi htjela to
 C         G
 Krivo je more.)

Znaj, ljeto je varljivo
 a srce ti zavodljivo
 Kuci kad si dosla ti
 znala si da si u zabludi
 A to vece uz mora sum
 od srece sva si blistala
 Krivo je more.

 Znaj, ljeto je varljivo
 a srce ti je zavodljivo
 Kuci kad si dosla ti,
 znala si da si u zabludi
 A to vece uz mora sum
 od srece sva si blistala
 Krivo je more.

 SOLO:
       G D Em C G D
       H H7 Em D C D

E|-------------------------------7-8----8-7----7----|
B|--10b12--10b12r10--8p7h8----10-----------8----10--|
G|------------------------------------------7-------|
D|--------------------------------------------------|
A|--------------------------------------------------|
E|--------------------------------------------------|

E|--7h8p7-------------------------------------------|
B|---------7-7---10p7-8---7-------------------------|
G|----------------------------9----7-7---5-4-2--(0)-|
D|--------------------------------------------------|
A|--------------------------------------------------|
E|--------------------------------------------------|
Tap to rate this tab
 
# A B C D E F G H I J K L M N O P Q R S T U V W X Y Z