Song name
# A B C D E F G H I J K L M N O P Q R S T U V W X Y Z

Divlje Jagode - Autostop tab

Uvod:         pm---------
E||-------------------------|------------------------|-----------------------|
B||-------------------------|------------------------|-----------------------|
G||-------------------------|--7---------------------|----7-------7----------|
D||--7/--9----9-9-9-9-9-9---|--5----7----5--5-5-5----|----5--7----5--7/-9----|
A||--5/--7----7-7-7-7-7-7---|-------5----3--3-3-3----|-------5-------5/-7----|
E||-------------------------|------------------------|-----------------------|
    Pm---------
---------------------|------------------------|------------------------|------||
---------------------|------------------------|------------------------|------||
---------------------|--7---------------------|--7----------7----------|------||
----9-9-9-9-9-9------|--5----7----5--5-5-5----|--5--7/-9----5--7/-9----|------||
----7-7-7-7-7-7------|-------5----3--3-3-3----|-----5/-7-------5/-7----|------||
---------------------|------------------------|------------------------|------||


E5
Lutam cijeli dan rubom autostrade
C5                 E5
I cekam da mi neko stane
E5
Prolaze kraj mene, ne vidi me nitko
C5                 E5
Dal' zbog kose il gitare

Znoj mi se cijedi s lica i tijela
Ja dizem ruku: Stani! Stoj!
Zasto niko nece, nece da me primi
Uprljat' cu im auto

Refren:
      G         D         C
Autostop, autostop, autostop
Autostop, autostop, autostop

      G5        D5        C5
Autostop, autostop, autostop
Autostop, autostop, autostop
A5    H5
Autostop

Umor vec polako sklapa mi oci
A neko mi svira i koci
Otvara mi vrata vozac kamiona
Kaze da mogu s njim poci

To je covjek pravi, nudi mi cigare
Zali se da drustvo mu fali
Put ce biti dug, on dodaje gas
Starimo na autostradi
Tap to rate this tab
# A B C D E F G H I J K L M N O P Q R S T U V W X Y Z