Song name
# A B C D E F G H I J K L M N O P Q R S T U V W X Y Z

Divlje Jagode - Divlje Jagode tab

* ovo je ona prva verzija divljih jagoda
* sa albuma "divlje jagode"

* ovaj uvod se svira zajedno sa klavijaturom

E-------------------------|
H-------------------------|
G-------------------------| 4X
D---------------------3---|
A-5-5-3-5-0-3-5-5-3-5---3-|
E-------------------------|

E-----------------------|--------------|
H-----------------------|--------------|
G-----------------------|--------------|
D-------3--S8-7-3-2-3---|----3-2-3-2---|
A--1--5-----------------|1-5---------5-|
E-----------------------|--------------|

Dm             C     B    Dm
U malom vrtu raste divlji plod
E-------------------------|
H-------------------------|
G-------------------------|
D---------------------3---|
A-5-5-3-5-0-3-5-5-3-5---3-|
E-------------------------|

Dm            C    B  Dm
u tom plodu sjeme cudesno
E-------------------------|
H-------------------------|
G-------------------------|
D---------------------3---|
A-5-5-3-5-0-3-5-5-3-5---3-|
E-------------------------|

Dm         C     B  Dm
neka ruka sjeme posija
E-------------------------|
H-------------------------|
G-------------------------|
D---------------------3---|
A-5-5-3-5-0-3-5-5-3-5---3-|
E-------------------------|

C          B     Dm
pet jagoda sunce obasja
E-------------------------|
H-------------------------|
G-------------------------| 4X
D---------------------3---|
A-5-5-3-5-0-3-5-5-3-5---3-|
E-------------------------|

   B        Dm
   Divlje jagode
E------------------|
H-10-10-8-|--8-8-6-|
G------------------|
  Divlje jagode
E------------------|
H-10-10-8-|--8-8-6-|
G------------------|

Gm, Dm, F, Gm, Gm, Dm, C, Dm
Laj, laj, laj laj laj, laj, laj la      2x

divlje jagode............
Tap to rate this tab
# A B C D E F G H I J K L M N O P Q R S T U V W X Y Z