Song name
# A B C D E F G H I J K L M N O P Q R S T U V W X Y Z

Divlje Jagode - Marija tab

Evo koristeni akordi:
    Am  Fmaj(7) G
F#|-0---0-------3---|
C#|-1---1-------0---|
A |-2---2-------0---|
E |-2---3-------0---|
H |-0-----------2---|
F#|-------------3---|

Eh sad idete ovako:

Am
Ti i ja smo sunca dva 
Ti i ja ko andjeli 
Fmaj                   Am  (prelaz Fmaj-G)
spojili se nebom letjeli
Am
do duge mi smo zeljeli
do duge mi smo plovili
Fmaj                     Am (prelaz kao i gore)
na krilima od sjena mjeseca
Am
Nisam bio mnogo jak
G         Fmaj              Am (prelaz -II-)
da odolim na tvoj tajni znak
Am
zemlju si ocarala 
G           Fmaj      Am
zauvijek si mene uzela
 
(sad se idu samo riffovi, mozete dodati 4. prst da budu power
 akordi ali isti je efekat...)

            C5      G5
Ref: Trebam te Marija
        D5        A5 
     od neba do neba
            C5      G5
     Povedi me Marija 
       D5
     moja Marija.

Solo je jednostavan moze ga svako odsvirat, evo ga:
SOLO (2x):
                                                           zadnji put
eb|-------------------------------------------------------|-----|
Hb|-8^wr--5--6-----------------8^wr--5--6-----------------|-----|
Gb|-------------5--4--5--7--5--------------5--4--5--4-----|-----|
Db|----------------------------------------------------7--|-/12-|
Ab|-------------------------------------------------------|-----|
Eb|-------------------------------------------------------|-----|
Tap to rate this tab
# A B C D E F G H I J K L M N O P Q R S T U V W X Y Z